Cifra Club

Black Helicopter

Matthew Good

Cifra (violão e guitarra)
Selo Cifra Club: esta cifra foi revisada para atender aos critérios oficiais da nossa Equipe de Qualidade.
tom: Am
E|------------------|
                                  | Black Helicopter |
                                  |   Matthew Good   |
Tabbed by: Ross Wale               ‾‾‾‾‾‾‾‾‾‾‾‾‾‾‾‾‾‾

For the picking parks, the thicker pick you use, the better it sounds.
I've probably made this tab in a way that it's difficult to understand, but it's all here.

Tune down a half step.
Eb Ab Db Gb Bb eb

Chords:
  Am  C  G  F
E|--0--0--3--1--|
B|--1--1--3--1--|
G|--2--0--0--2--|
D|--2--2--0--3--|
A|--0--3--2--3--|
E|--x--x--3--1--|

Riff 1
E|------------------------------------------|
B|----------------3-------5/6-6-6-6-5-5-----|
G|--------5---------------------------------|
D|--3h5p3---3h5p3---3h5p3-------------------|
A|------------------------------------------|
E|------------------------------------------|
Riff 2
E|------------------------------------------|
B|----------------3-------5-5-5/6-6/8-8\6-6-|
G|--------5---------------------------------|
D|--3h5p3---3h5p3---3h5p3-------------------|
A|------------------------------------------|
E|------------------------------------------|

Chorus:
This is really bass playing, no guitar, but you can just palm mute the strings and play 
it

E|---------------------------|
B|---------------------------|
G|---------------------------|
D|---------------------------|
A|--------3--0-0-0-0-0h3-0h3-|
E|-1-1-1-1-------------------|

There are a lot more 1's and 0's, it would just take up too much space to tab them all.

Post Chorus
I couldn't figure out the first half of the post chorus riff.. but i tried.
I'm pretty sure abotu the second part.
E|------------------------------------------------|
B|----------------3--5-3-0----------------3-5-----|
G|--------5-----------------------5---------------|
D|--3h5h3---3h5p3-----------3h5h3---3h5p3---------|
A|------------------------------------------------|
E|------------------------------------------------|

Drum Intro
Verse Riffs x 3
Drum Interlude
Chorus x 3
Post Chorus
Verse x 3
Drum Interlude
Chorus x 4
Post Chorus

All you need to rememeber is that Riff one is played with Am, C, and F
and Riff 2 is always played with G

Am
You're going to take what you can get
C
a hammered styrofoam
G
beat into the West
F
live the highway in your home
Am
you're going to get what you deserve
C
and not a penny less
G
concrete the natural absurd
F
only killers call killing progress

Chorus(only bass)

Fall on me
Black Helicopter
they're all I see
Black Helicopters

Am
You're going to take what you can get
C
food aid rock and roll
G
absolution for your head
F
for Xbox, COINTELPRO
Am
you're going to get what you deserve
C
and not a bullet less
G
hey Sammy, ain't you heard?
F
only killers call killing progress

Chorus(only bass)

Fall on me
Black Helicopter
they're all I see
Black Helicopters
Outros vídeos desta música
    0 exibições
      • ½ Tom
      • Am
      • Bbm
      • Bm
      • Cm
      • C#m
      • Dm
      • Ebm
      • Em
      • Fm
      • F#m
      • Gm
      • G#m
    • Adicionar à lista

    Afinação da cifra

    Afinador online

      0 comentários

      Ver todos os comentários

      Entre para o Cifra Club PRO

      Tenha acesso a benefícios exclusivos no App e no Site

      • Chega de anúncios

      • Badges exclusivas

      • Mais recursos no app do Afinador

      • Atendimento Prioritário

      • Aumente seu limite de lista

      • Ajude a produzir mais conteúdo

      Cifra Club Pro

      Aproveite o Cifra Club com benefícios exclusivos e sem anúncios
      Cifra Club Pro
      Aproveite o Cifra Club com benefícios exclusivos e sem anúncios
      Ops (: Contenido disponible sólo en portugués.
      OK