Cifra Club

Aprenda

Buffalo Seven Intro

Matthew Good

Cifra: Principal (violão e guitarra)
tom: F#
I think I've got this one. I noticed there were no other tabs so i had a go. (It's my 
tab so the timing might be a bit off.)

E------------------------------|
B------------------------------|
G---4-3----4-3-----------------|    X2
D--------------4---4-----4-----|
A--------2-----------------2-1-|
E-4--------------2---2-1-------|

(This happens every 2 times for 8 times)
E-------------------------------|
B-------------------------------|
G---4-3----4-3h4----------------|
D---------------4---4-----4-----|
A--------2------------------2-1-|
E-4---------------2---2-1-------|

yeah i don't feel like figuring out the chords so enjoy:D
119 exibições
    • ½ Tom
    • A
    • Bb
    • B
    • C
    • Db
    • D
    • Eb
    • E
    • F
    • F#
    • G
    • Ab
  • Adicionar à lista

    0 comentários

    Ver todos os comentários

    Conseguiu tocar?

    0 Tocaram 0 Ainda não

    Grave um vídeo tocando Buffalo Seven Intro e nos envie!

    00:00 / 00:00
    outros vídeos desta música
    repetir qualidade Automático
    Outros vídeos desta música
    00:00 / 00:00
    Automático

    Cifra Club Pro

    Aproveite o Cifra Club com benefícios exclusivos e sem anúncios
    Cifra Club Pro
    Aproveite o Cifra Club com benefícios exclusivos e sem anúncios
    OK