Cifra Club

A19

Maxïmo Park

Cifra: Principal (violão e guitarra)
Selo Cifra Club: esta cifra foi revisada para atender aos critérios oficiais da nossa Equipe de Qualidade.
tom: E
E|----xx-xx-xxx-xxx-|
B|----xx-xx-xxx-xxx-|
G|----xx-xx-999-xxx-|
D|----99-77-999-777-|
A|----77-77-777-777-|
E|----00-xx-000-xxx-|

Intro - 

E|----xx-xx-------xxxxxx-xxx--xx-xx-xxx-xxx--xx-xx-xxx-xxx|
B|----xx-xx-------xxxxxx-xxx--xx-xx-xxx-xxx--xx-xx-xxx-xxx|
G|----99-xx-------131313-xxx--xx-xx-999-xxx--xx-xx-xxx-xxx|
D|----99-77-S| lide-141414-777--99-77-999-777--99-77-999-777|
A|----77-77--| Up---141414-777--77-77-777-777--77-77-777-777|
E|----xx-xx-------121212-555--00-xx-000-xxx--00-xx-000-xxx|


E     A       E         A                E     A       E        A
A footbridge calls out, dull metal moans as we clamber over
E     A    E          A            E            A              E     A
Paint is repelled and bronze grips hard, I can't touch such an ugly surface
E   A           E     A      E             A          E         A
Two hundred and fifty miles away, you need money to spread your wings
E    A         E      A       E        A           E           A
Each town must bear a name, A lasting testament to organization

E|----X----------X----X---------|
B|----10---------7----10--------|
G|----11--9/6----7----11--9/6---|
D|----11------9--7----11------9-|
A|----9----------5----9---------|
E|----X----------X----X---------|

B           C#m
Sobbing and Sighing
    D                  A         E
The scales are falling from your eyes

E|------------------------------|
B|--------7h9-9/12-12-12--------|
G|------------------------------|
D|------------------------------|
A|------------------------------|
E|------------------------------|


E     A            E      A         E            A            E         A
Green metal grows, towers toppling, They tore it down before I took my picture
E  A  E      A            E        A        E             A
A19, I can't settle down, The same attitude engulfs this country
E  A    E     A        E       A          E  A
My only aspirations were those held on an A4 printout
E         A             E     A
But those words weren't in my repertoire
E         A          E   A
You can't cling to a reputation

E|----X----------X----X---------|
B|----10---------7----10--------|
G|----11--9/6----7----11--9/6---|
D|----11------9--7----11------9-|
A|----9----------5----9---------|
E|----X----------X----X---------|

B           C#m
Sobbing and Sighing
    D                  A         E
The scales are falling from your eyes

E|------------------------------|
B|--------7h9-9/12-12-12--------|
G|------------------------------|
D|------------------------------|
A|------------------------------|
E|------------------------------|

B           C#m
Tossing and Turning
    D                  A    E
The truth should come as no surprise

E|------------------------------|
B|--------7h9-9/12-12-12--------|
G|------------------------------|
D|------------------------------|
A|------------------------------|
E|------------------------------|

E           D     A    D        A   E             D  A      D      A
A continent could fall tonight, And it would have no impact on our lives
E         D  A    D            A                E            D   A   D           E
It's okay to love the way that something looks, Just be sure beneath it something hooks

E|------------------------------|
B|------------------------------|
G|------------------------------|
D|------------------------------|
A|-----7-----9-----12----11\----|
E|------------------------------|


B           C#m
Sobbing and Sighing
    D                  A         E
The scales are falling from your eyes

E|------------------------------|
B|--------7h9-9/12-12-12--------|
G|------------------------------|
D|------------------------------|
A|------------------------------|
E|------------------------------|

B           C#m
Tossing and Turning
    D                  A    E
The truth should come as no surprise

E|------------------------------|
B|--------7h9-9/12-12-12--------|
G|------------------------------|
D|------------------------------|
A|------------------------------|
E|------------------------------|

E           D     A    D        A   E             D  A      D      A
A continent could fall tonight, And it would have no impact on our lives
E         D  A    D            A                E            D   A   D           E
It's okay to love the way that something looks, Just be sure beneath it something hooks
Outros vídeos desta música
    10 exibições
      • ½ Tom
      • A
      • Bb
      • B
      • C
      • Db
      • D
      • Eb
      • E
      • F
      • F#
      • G
      • Ab
    • Adicionar à lista

    Afinação da cifra

    Afinador online

      0 comentários

      Ver todos os comentários

      Conseguiu tocar?

      0Tocaram0Ainda não

      Grave um vídeo tocando A19 e nos envie!

      Toque também

      1. Imagem do artista We Are ScientistsNobody Move Nobody Get Hurt We Are Scientists
      2. Imagem do artista The Rakes22 Grand Job The Rakes
      3. Imagem do artista The WombatsLemon To a Knife Fight The Wombats
      4. Imagem do artista The RiflesShes Got Standards The Rifles

      Entre para o Cifra Club PRO

      Tenha acesso a benefícios exclusivos no App e no Site

      • Chega de anúncios

      • Badges exclusivas

      • Mais recursos no app do Afinador

      • Atendimento Prioritário

      • Aumente seu limite de lista

      • Ajude a produzir mais conteúdo

      Cifra Club Pro

      Aproveite o Cifra Club com benefícios exclusivos e sem anúncios
      Cifra Club Pro
      Aproveite o Cifra Club com benefícios exclusivos e sem anúncios
      Ops (: Contenido disponible sólo en portugués.
      OK