Cifra Club

Aprenda

Chora Viola

Mayck e Lyan

Cifra: Principal (violão e guitarra)
Tom: E
E|---7/10---10---9----7---000---10---10---9----10----000--
B|---9/12---12---10---9---000---12---12---10----9----000--
G|------------------------000------------------------000--
E|------------------------000------------------------000--
B|------------------------000------------------------000--

E|----------------------000--------------------------------------
B|----------------------000-----------------------0--------------
G|---3--3---1--1---0----000---3---3---1---1---0------------6-----
E|---4--4---2--2---0----000---4---4---2---2---0------0--4-----4--
B|----------------------000-----------------------5--------------


E|-----------------------------------------------------------------
B|-----0-------------0----------------0-------------0--------------
G|---------------------------6------------------------------6------
E|----------2p0---------0--4---4-----------2p0---------0--4---4----
B|---0---4------2h4--5--------------0---4------2h4--5--------------

E|-------------------------0--0--0-----0--0--0---
B|-----0---0---0---0--0----0--0--0-----0--0--0---
G|-------------------------6--6--6-----6--6--6---
E|---------2---4---2-/4----4--4--4-----4--4--4---
B|-----0---4---2---4-/5----5--5--5-----5--5--5---


E7
Eu não caio do cavalo  nem do burro e nem do galho

Ganho dinheiro cantando a viola é meu trabalho
                   A                     B7   ( B7  A   B7 )
No lugar onde tem seca eu de sede lá não caio
                 E                     B7      E
Levanto de madrugada e bebo pingo de orvalho  chora viola !

(Intro)

E7
Não como gato por lebre  não compro cipó por laço

Eu não durmo de botina  não dou beijo sem abraço
                    A                      B7  ( B7  A  B7 )
Fiz um ponto lá na mata caprichei e dei um nó
                 E                  B7    E
Meus amigos eu ajudo  inimigo tenho dó  chora viola !

(Intro)

E7
A lua é dona da noite e o sol é dono do dia

Admiro as mulheres que gostam de cantoria
                       A                            B7   (  B7  A  B7 )
Mato a onça e bebo o sangue  furo a terra e tiro o ouro
                      E                    B7      E
Quem sabe agüentar saudade  não agüenta desaforo  chora viola !

(Intro)

E7
Eu ando de pé no chão  piso por cima da brasa

Quem não gosta de viola que não ponha o pé lá em casa
                A                     B7   ( B7   A   B7 )
A viola está tinindo o cantador tá de pé
                    E                       B7   E
Quem não gosta de viola  brasileiro bom não é  chora viola !
Colaboração e revisão:
  • Pedro Claudio
10.896 exibições
    • ½ Tom
    • A
    • Bb
    • B
    • C
    • Db
    • D
    • Eb
    • E
    • F
    • F#
    • G
    • Ab
  • Adicionar à lista

    0 comentários

    Mostrar mais comentários

    Conseguiu tocar?

    0 Tocaram 0 Ainda não

    Grave um vídeo tocando Chora Viola e mande pra gente!

    00:00 / 00:00
    outros vídeos desta música
    repetir qualidade Automático
    Outros vídeos desta música
    00:00 / 00:00
    Automático
    OK