Cifra Club

Aprenda

Cara Bacana

MC G15

Cifra: Versao-completa (violão e guitarra)
tom: A
[Intro] A  F#m  Bm  E  D

E|--------------------------------------|
B|--------------------------------------|
G|--------------------------------------|
D|-----------------------------------2--|
A|-0-0----0-2------------0-2-2-----2----|
E|--------------2-2----2----------------|

A
Foi difícil pra você
                             F#m
Acreditar que eu sou um cara bacana
E quando a gente briga 
                    Bm
E que vê que nós se ama
Então esquece logo isso
                         E    D E
E vem com tudo aqui pra cama

A
Foi difícil pra você 
                             F#m
Acreditar que eu sou um cara bacana
E quando a gente briga
                    Bm
E que vê que nós se ama
Então esquece logo isso 
                          E
E vem com tudo aqui pra cama
    D           E
Por isso que me ama

A
Amor
                            F#m
Sou esse cara que você está vendo
Sou problemático
            Bm
Um pouco ciumento
                                  E
Mas você sabe que eu sou foda na cama
     D           E
Por isso que me ama

           4X
E|--------------------|----------------------------------14--12--10--9--12--10--9-----|
B|-10-10-12-14-12-10--|--12-12-14-15-14-12-12-12-14-15-14-------------------------10--|
G|--------------------|---------------------------------------------------------------|
D|--------------------|---------------------------------------------------------------|
A|--------------------|---------------------------------------------------------------|
E|--------------------|---------------------------------------------------------------|

           4X
E|--------------------|----------------------------------14--12--10--9--12-=14--16-17--|
B|-10-10-12-14-12-10--|--12-12-14-15-14-12-12-12-14-15-14------------------------------|
G|--------------------|----------------------------------------------------------------|
D|--------------------|----------------------------------------------------------------|
A|--------------------|----------------------------------------------------------------|
E|--------------------|----------------------------------------------------------------|
Compositor não encontrado.
Colaboração e revisão:
  • Gabriel Coutrin
4.524 exibições
    • ½ Tom
    • A
    • Bb
    • B
    • C
    • Db
    • D
    • Eb
    • E
    • F
    • F#
    • G
    • Ab
  • Adicionar à lista

    0 comentários

    Ver todos os comentários

    Conseguiu tocar?

    2 Tocaram 0 Ainda não

    Grave um vídeo tocando Cara Bacana e nos envie!

    00:00 / 00:00
    Outros vídeos desta música
    Repetir Qualidade Automático
    Outros vídeos desta música
    00:00 / 00:00
    Automático

    Cifra Club Pro

    Aproveite o Cifra Club com benefícios exclusivos e sem anúncios
    Cifra Club Pro
    Aproveite o Cifra Club com benefícios exclusivos e sem anúncios
    OK