Cifra Club

Deu Onda (versão light)

MC G15

Cifra: Principal
exibições 235.257
Tom: G#
Intro: G#m C#m

G#m
Eu preciso te ter
C#m
Meu fechamento é você, mozão

G#m
Eu não preciso mais beber
                  C#m
E nem fumar maconha

Que a sua presença me deu onda

G#m
O seu sorriso me dá onda
C#m
Você sentando, mozão, me deu onda

G#m                       C#m
Que vontade de te ter, garota

Eu gosto de você, fazer o quê?
G#m
O pai te ama
                         C#m
Que vontade de te ter, garota

Eu gosto de você, fazer o quê?
G#m
O pai te ama, é
O pai te ama
C#m
O pai te ama, é
O pai te ama

Melodia:


E|-4--4--11--11--7--7/6--6--4---4-6-4-6-4-6-8-4-------|
B|----------------------------------------------6-6p4-|
G|----------------------------------------------------|
D|----------------------------------------------------|
A|----------------------------------------------------|
E|----------------------------------------------------|


E|-4-4-4--11-11-8-8--6/4--4-6-4-6-4--9-8-4------------|
B|----------------------------------------------------|
G|----------------------------------------------------|
D|----------------------------------------------------|
A|----------------------------------------------------|
E|----------------------------------------------------|


E|-4-6-4-6~-6-8-6-4--4-6-4-6-4--4-4-9-8-4-------------|
B|----------------------------------------------------|
G|----------------------------------------------------|
D|----------------------------------------------------|
A|----------------------------------------------------|
E|----------------------------------------------------|


E|-4-6-4-6-4-4-4-4--6-8-6-4---------------------------|
B|----------------------------------------------------|
G|----------------------------------------------------|
D|----------------------------------------------------|
A|----------------------------------------------------|
E|----------------------------------------------------|
Acordes para:
    Colaboração e revisão:
    • LARISSA MANUELA
    • Alecsander Nunes

    0 comentários

      mostrar mais comentários

      Conseguiu tocar?

      11tocaram6ainda não

      Grave um vídeo tocando Deu Onda (versão light) e mande pra gente!

      00:00 / 00:00
      outros vídeos desta música
      repetirqualidadeautomática
      Outro vídeos desta música
        00:00 / 00:00
        automática
        OK