Cifra Club

Baile De Favela

MC João

Cifra: Solo (violão e guitarra)
tom: G
E|-------------------------------------------------------------
B|-------------------------------------------------------------
G|-------------------------------------------------------------
D|---5-4-------5-5-5-4-------5-4-------5-5-5-7-7---7-5-7-5-7-7-
A|-7-----7---7---------7---7-----7---7-------------------------
E|-------------------------------------------------------------

E|-------------------------------------------------------------
B|-------------------------------------------------------------
G|-----------------------4-4-4-4-------------------------------
D|-7-5-7-5-7-7---7-5-7-5---------4-4-5-4-----------------------
A|---------------------------------------7---------------------
E|-------------------------------------------------------------

Composição de MC João
Colaboração e revisão:
  • Luís Filho
6.857 exibições
    • ½ Tom
    • A
    • Bb
    • B
    • C
    • Db
    • D
    • Eb
    • E
    • F
    • F#
    • G
    • Ab
  • Adicionar à lista

    0 comentários

    Ver todos os comentários

    Conseguiu tocar?

    2 Tocaram 2 Ainda não

    Grave um vídeo tocando Baile De Favela e nos envie!

    00:00 / 00:00
    Outros vídeos desta música
    Repetir Qualidade Automático
    Outros vídeos desta música
    00:00 / 00:00
    Automático

    Cifra Club Pro

    Aproveite o Cifra Club com benefícios exclusivos e sem anúncios
    Cifra Club Pro
    Aproveite o Cifra Club com benefícios exclusivos e sem anúncios
    OK