Cifra Club

Dentro do Carro

MC Kevin o Chris

Cifra: Principal (violão e guitarra)
Tom: Em
[Solo]

E|------------------------------------------------|
B|------------------------------------------------|
G|------------------------------------------------|
D|-----------2-0------4----0--2-------------------|
A|---------2--------2----2------------------------|
E|-0--3h4-----------------------------------------|

E|------------------------------------------------|
B|------------------------------------------------|
G|------------------------------------------------|
D|-----------2-0----------------------------------|
A|---------2--------------------------------------|
E|-0--3h4-----------------------------------------|

[Primeira parte]

 Em                     D
Deixo você louca de vontade pra transar comigo
 Em                    D (pausa)
Te olho com cara de safado, bandido
 Em                           D
É que hoje à noite eu trouxe uma surpresa pra você
 Em                       D
Vamos lá pro carro, que você vai ver

[Pré-Refrão]

         Em   
Dentro do carro
  D             Em    D
Hoje vai ter putaria
         Em
Dentro do carro
  D             Em    D
Hoje vai ter putaria

[Refrão]

(Em   D)

Senta, senta, senta, senta, senta
Pra valer a pena
Senta, senta, senta, senta, senta

Senta, senta, senta, senta, senta
Pra valer a pena
Senta, senta, senta, senta, senta

Senta, senta, senta, senta, senta
Pra valer a pena
Senta, senta, senta, senta, senta

[Pré-Refrão]

         Em   
Dentro do carro
  D             Em    D
Hoje vai ter putaria
         Em
Dentro do carro
  D             Em    D
Hoje vai ter putaria

[Refrão]

( Em   D )

Senta, senta, senta, senta, senta
Pra valer a pena
Senta, senta, senta, senta, senta

Senta, senta, senta, senta, senta
Pra valer a pena
Senta, senta, senta, senta, senta

Senta, senta, senta, senta, senta
Pra valer a pena
Senta, senta, senta, senta, senta
exibições 16.590
Acordes para:
    Composição: Ulisses Neto Colaboração e revisão:
    • Ulisses Neto

    0 comentários

    mostrar mais comentários

    Conseguiu tocar?

    4 tocaram 1 ainda não

    Grave um vídeo tocando Dentro do Carro e mande pra gente!

    00:00 / 00:00
    outros vídeos desta música
    repetir qualidade Automático
    Outros vídeos desta música
    00:00 / 00:00
    Automático
    OK