Cifra Club

Aprenda

Arebunda (part. MC Barone)

MC Lan

Cifra: Principal (violão e guitarra)
tom: Am
[Intro] Am  E/G#

E|-7h8-7----------------7h8-7------------------------|
B|--------10-9--9-9-10---------10-9--9-10-10---------|
G|---------------------------------------------------|
D|---------------------------------------------------|
A|---------------------------------------------------|
E|---------------------------------------------------|

E|-7h8-7----------------7h8-7--------12p10--8\7------|
B|--------10-9--9-9-10---------10-9--------------10--|
G|---------------------------------------------------|
D|---------------------------------------------------|
A|---------------------------------------------------|
E|---------------------------------------------------|

E|-7h8-7----------------7h8-7------------------------|
B|--------10-9--9-9-10---------10-9--9-10-10---------|
G|---------------------------------------------------|
D|---------------------------------------------------|
A|---------------------------------------------------|
E|---------------------------------------------------|

E|-7h8-7--------------7h8-7-----12p10--12p10--12p10--|
B|-------10-9--9-9-10------10-9----------------------|
G|---------------------------------------------------|
D|---------------------------------------------------|
A|---------------------------------------------------|
E|---------------------------------------------------|

E|-7h8-7--------------7h8-7-----12p10--12p10--12p10--|
B|-------10-9--9-9-10------10-9----------------------|
G|---------------------------------------------------|
D|---------------------------------------------------|
A|---------------------------------------------------|
E|---------------------------------------------------|

E|-7h8-7----------------7h8-7--------12p10--8\7------|
B|--------10-9--9-9-10---------10-9--------------10--|
G|---------------------------------------------------|
D|---------------------------------------------------|
A|---------------------------------------------------|
E|---------------------------------------------------|

 Am        E/G#
Mil e uma noites
                      Am
Escutando aquela flautinha
               E/G#
É o arebum bundão
           Am
Arebum bundinha
               E/G#
É o arebum bundão
           Am
Arebum bundinha
                            E/G#
É o líder dos quarenta "ladrão"
                  Am
Sarrando nessa novinha
Dare areraba
      E/G#
E a flauta que manda
   Am                 E/G#
Comanda essa bunda maluca

 Am
Dare areraba
      E/G#
E a flauta que manda
   Am                 E/G#
Comanda essa bunda maluca

Am
Arebum bumbum
Bumbum
E/G#
Arebum bumbum
Bumbum
Am
Arebum bumbum
Bumbum
Bumbum bumbum
    E/G#
Bumbum

Am
Arebum bumbum
Bumbum
E/G#
Arebum bumbum
Bumbum
Am
Arebum bumbum
Bumbum
Bumbum bumbum
    E/G#
Bumbum

Am      E/G#
A lá Vavá
        Am
A li Babão
Tu vai sentar
           E/G#
Tu vai quicar
Tu vai sarrar
                   Am
Pros quarenta "ladrão"

        E/G#
A lá Vavá
        Am
A li Babão
Tu vai sentar
           E/G#
Tu vai quicar
Tu vai sarrar
                   Am
Pros quarenta "ladrão"

                                 E/G#
Tá com o líder dos quarenta "ladrão"
                          Am
Alibaba vai sarrar nas novinhas
           E/G#
Arebum bundão
           Am
Arebum bundinha

                                 E/G#
Tá com o líder dos quarenta "ladrão"
                          Am
Alibaba vai sarrar nas novinhas
           E/G#
Arebum bundão
           Am
Arebum bundinha

              E/G#
Vai com o bumbum
            Am
Bumbum, bumbum
              E/G#
Vai com o bumbum
Bumbum, bumbum

( Am  E/G#  Am  E/G# )
( Am  E/G#  Am  E/G# )

 Am        E/G#
Mil e uma noites
                      Am
Escutando aquela flautinha
               E/G#
É o arebum bundão
           Am
Arebum bundinha
               E/G#
É o arebum bundão
           Am
Arebum bundinha
                            E/G#
É o líder dos quarenta "ladrão"
                  Am
Sarrando nessa novinha
Dare areraba
      E/G#
E a flauta que manda
   Am                 E/G#
Comanda essa bunda maluca

 Am
Dare areraba
      E/G#
E a flauta que manda
   Am                 E/G#
Comanda essa bunda maluca

Am
Arebum bumbum
Bumbum
E/G#
Arebum bumbum
Bumbum
Am
Arebum bumbum
Bumbum
Bumbum bumbum
    E/G#
Bumbum

Am
Arebum bumbum
Bumbum
E/G#
Arebum bumbum
Bumbum
Am
Arebum bumbum
Bumbum
Bumbum bumbum
    E/G#
Bumbum

Am      E/G#
A lá Vavá
        Am
A li Babão
Tu vai sentar
           E/G#
Tu vai quicar
Tu vai sarrar
                   Am
Pros quarenta "ladrão"

        E/G#
A lá Vavá
        Am
A li Babão
Tu vai sentar
           E/G#
Tu vai quicar
Tu vai sarrar
                   Am
Pros quarenta "ladrão"

                                 E/G#
Tá com o líder dos quarenta "ladrão"
                          Am
Alibaba vai sarrar nas novinhas
           E/G#
Arebum bundão
           Am
Arebum bundinha

                                 E/G#
Tá com o líder dos quarenta "ladrão"
                          Am
Alibaba vai sarrar nas novinhas
           E/G#
Arebum bundão
           Am
Arebum bundinha

              E/G#
Vai com o bumbum
            Am
Bumbum, bumbum
              E/G#
Vai com o bumbum
Bumbum, bumbum

[Final] Am  E/G#  Am  E/G#
Compositor não encontrado.
Colaboração e revisão:
  • Thiago Almeida
2.549 exibições
    • ½ Tom
    • Am
    • Bbm
    • Bm
    • Cm
    • C#m
    • Dm
    • Ebm
    • Em
    • Fm
    • F#m
    • Gm
    • G#m
  • Adicionar à lista

    0 comentários

    Ver todos os comentários

    Conseguiu tocar?

    0 Tocaram 0 Ainda não

    Grave um vídeo tocando Arebunda (part. MC Barone) e nos envie!

    00:00 / 00:00
    Outros vídeos desta música
    Repetir Qualidade Automático
    Outros vídeos desta música
    00:00 / 00:00
    Automático

    Cifra Club Pro

    Aproveite o Cifra Club com benefícios exclusivos e sem anúncios
    Cifra Club Pro
    Aproveite o Cifra Club com benefícios exclusivos e sem anúncios
    OK