Cifra Club

Aprenda

Tchau e Bença

MC Livinho

Cifra: Principal (violão e guitarra)
Tom: E
[Intro] D#m  A#

      D#m         A#
E|------6-9-7---6-7-6---------------------------------|
B|----7----------------9-7-6--------------------------|
G|--8-------------------------------------------------|
D|----------------------------------------------------|
A|----------------------------------------------------|
E|----------------------------------------------------|

      D#m         A#
E|------6-9-7---6-7-6---------------------------------|
B|----7----------------9-7-6--------------------------|
G|--8-------------------------------------------------|
D|----------------------------------------------------|
A|----------------------------------------------------|
E|----------------------------------------------------|

      D#m        A#
Cansei de te dar valor
    D#m          A#
Falei: Tchau e bença, amor
     D#m          A#
Foquei na madruga ali
     D#m        A#
Colei, lá me sucumbi

           A#7
Se me verem lá
            D#m
Ai, não vai prestar
               A#7
Que elas vão pedir
               D#m
E eu não vou negar

            D#m
Eu não vou negar
            D#m
Eu não vou negar

                            B    D#m
Que que essa garota fez comigo?
                  B            D#m
Tirou as algemas do bandido
         A#7
E as danada vai
         D#m
Vai mexendo aê
           A#7
Que o resumo é
            D#m
Depois do rolê

                            B    D#m
Que que essa garota fez comigo?
                  B            D#m
Tirou as algemas do bandido
         A#7
E as danada vai
         D#m
Vai mexendo aê
           A#7
Que o resumo é
            D#m
Depois do rolê

      D#m         A#
E|------6-9-7---6-7-6---------------------------------|
B|----7----------------9-7-6--------------------------|
G|--8-------------------------------------------------|
D|----------------------------------------------------|
A|----------------------------------------------------|
E|----------------------------------------------------|

      D#m         A#
E|------6-9-7---6-7-6---------------------------------|
B|----7----------------9-7-6--------------------------|
G|--8-------------------------------------------------|
D|----------------------------------------------------|
A|----------------------------------------------------|
E|----------------------------------------------------|

      D#m        A#
Cansei de te dar valor
    D#m          A#
Falei: Tchau e bença, amor
     D#m          A#
Foquei na madruga ali
     D#m        A#
Colei, lá me sucumbi

           A#7
Se me verem lá
            D#m
Ai, não vai prestar
               A#7
Que elas vão pedir
               D#m
E eu não vou negar

            D#m
Eu não vou negar
            D#m
Eu não vou negar

                            B    D#m
Que que essa garota fez comigo?
                  B            D#m
Tirou as algemas do bandido
         A#7
E as danada vai
         D#m
Vai mexendo aê
           A#7
Que o resumo é
            D#m
Depois do rolê

                            B    D#m
Que que essa garota fez comigo?
                  B            D#m
Tirou as algemas do bandido
         A#7
E as danada vai
         D#m
Vai mexendo aê
           A#7
Que o resumo é
            D#m
Depois do rolê
Colaboração e revisão:
25.600 exibições
    • ½ Tom
    • A
    • Bb
    • B
    • C
    • Db
    • D
    • Eb
    • E
    • F
    • F#
    • G
    • Ab
  • Adicionar à lista

    0 comentários

    Mostrar mais comentários

    Conseguiu tocar?

    1 Tocaram 8 Ainda não

    Grave um vídeo tocando Tchau e Bença e mande pra gente!

    00:00 / 00:00
    outros vídeos desta música
    repetir qualidade Automático
    Outros vídeos desta música
    00:00 / 00:00
    Automático

    Cifra Club Pro

    Aproveite o Cifra Club com benefícios exclusivos e sem anúncios
    Cifra Club Pro
    Aproveite o Cifra Club com benefícios exclusivos e sem anúncios
    OK