Cifra Club

Aprenda

Logo Eu

MC Marks

Cifra: Principal (violão e guitarra)
Tom: F#
[Intro]  A#m  F#  G#m

Parte 1 de 2
  
E|------------------------------------------|
B|-4-6-4------4--6-4---6-4--2---------------|
G|------6---6-------6-----------------------|
D|--------8-----------8---------------------|
A|------------------------------------------|
E|------------------------------------------|

Parte 2 de 2

E|------------------------------------------|
B|2-2-2-9-9-9-9-7-7-7-7---------------------|
G|------------------------------------------|
D|------------------------------------------|
A|------------------------------------------|
E|------------------------------------------|

      A#m
O baile já não é mais legal como antes
           F#                 G#m
As madrugadas já não é como antes
A#m
Nada disso me completa

Você eu e uma coberta
F#
Ja é o bastante
 G#m
Veio na hora certa

( A#m  F#  G#m )

Logo eu que achei que nunca ia me apaixonar

A#m
Mas que droga eu me envolvi
               F#
Logo eu como assim
       G#m
To viciado nesse amorzin
     G#m                  A#m
Você sentando é bem gostosin
                         F#
Você quicando é bem gostosin
      G#m                 A#m
Você dançando é bem gostosin
Você é tudo de bom

Quando o malandro se apaixona ele sussega
Você crê ou você acredita mulher
Composição de Mc Marks
Colaboração e revisão:
  • Davy Parkerr
10.142 exibições
    • ½ Tom
    • A
    • Bb
    • B
    • C
    • Db
    • D
    • Eb
    • E
    • F
    • F#
    • G
    • Ab
  • Adicionar à lista

    0 comentários

    Mostrar mais comentários

    Conseguiu tocar?

    0 Tocaram 2 Ainda não

    Grave um vídeo tocando Logo Eu e mande pra gente!

    00:00 / 00:00
    outros vídeos desta música
    repetir qualidade Automático
    Outros vídeos desta música
    00:00 / 00:00
    Automático

    Cifra Club Pro

    Aproveite o Cifra Club com benefícios exclusivos e sem anúncios
    7 dias grátis
    Cifra Club Pro
    Aproveite o Cifra Club com benefícios exclusivos e sem anúncios
    7 dias grátis
    OK