Cifra Club

Empina o Bumbum

MC Timbu

Cifra: Principal (violão e guitarra)
tom: A
E|-------------------------------------------|
B|-------------------------------------------|
G|-------------------------------------------|
D|-------------------------------------------|
A|-------------------------------------------|
E|-2-2-2-2-2-2-2-2-2-2-7-7-7-7-7-9-9-9-9-9/2-|

F#m
Ela desce, ela quica
                Bm
Ela empina o bumbum
         C#m
Chega no baile
                    F#m
Causando um zum zum zum

Ela sobe, ela quica
                Bm
Ela empina o bumbum
         C#m
Oi desse jeito
                    F#m
Enlouquece qualquer um

Com seu jeito sedutor
                 Bm
Essa mina vem dançando
                 C#m
Põe o dedinho na boca
                 F#m
Assim tá me instigando

Mas não vai ficar por isso
                    Bm
Olha o que eu vou fazer
                 C#m
Vou pegar essa mulher
                    F#m
E fazer ela enlouquecer

Essa noite
                         Bm
Que a gente vai se envolver
Na minha cama
C#m                   F#m
Tu vai delirar de prazer

E depois de hoje
                   Bm
Nunca vai me esquecer
      C#m
Ê ê ê

F#m
Ela desce, ela quica
                Bm
Ela empina o bumbum
         C#m
Chega no baile
                    F#m
Causando um zum zum zum

Ela sobe, ela quica
                Bm
Ela empina o bumbum
         C#m
Oi desse jeito
                    F#m
Enlouquece qualquer um

E|-----------------------------------------------------------------------------------------------------|
B|-------------------2-----------------------------------------------2---------------------------------|
G|---1-2---1-2---1-2---4-2-4-2-1-4-4-2-1-4-4-1-2-1---1-2---1-2---1-2---4-2-1-----4-4-2-1-4-4-4-1-2-1---|
D|-4-----4-----4-----------------------------------4-----4-----4-------------------------------------4-|
A|-----------------------------------------------------------------------------------------------------|
E|-----------------------------------------------------------------------------------------------------|

00:00 / 00:00
Outros vídeos desta música
Repetir
Outros vídeos desta música
Composição de MC Timbu e DJ Jupira
Colaboração e revisão:
  • Rafael Rosario
48 exibições
    • ½ Tom
    • A
    • Bb
    • B
    • C
    • Db
    • D
    • Eb
    • E
    • F
    • F#
    • G
    • Ab
  • Adicionar à lista

    0 comentários

    Ver todos os comentários

    Conseguiu tocar?

    0 Tocaram 0 Ainda não

    Grave um vídeo tocando Empina o Bumbum e nos envie!

    Entre para oCifra Club PRO

    Tenha acesso a benefícios exclusivos no App e no Site

    • Chega de anúncios

    • Prioridade de compra em lançamentos

    • Mais recursos no app do Afinador

    • Atendimento Prioritário

    • Descontos nos produtos Cifra Club

    • Ajude a produzir mais conteúdo

    00:00 / 00:00

    Cifra Club Pro

    Aproveite o Cifra Club com benefícios exclusivos e sem anúncios
    Cifra Club Pro
    Aproveite o Cifra Club com benefícios exclusivos e sem anúncios
    OK