Cifra Club

We Are The Young

McFly

Cifra: Principal (violão e guitarra)
tom: D
Intro:  D   D/F#  G

Listen
D
We got a situation

They're always putting us down
               G
We are the generation
                      D
Can't keep us under ground
           A     G# G
Is it my imagination?
                D     A
Or do you feel good?


D
We're on a one - way mission

Oh we can take it all night
             G
We are the sunshine nation
                            D
Girl check the sound and lights
               A  G# G
Is it my imagination?
                 D    A
Oh do you feel good?


Pre-Chorus:
D                                D/F#
What a day, what a day, what a day
G                                
What a day, what a day, what a day
D                                D/F#
What a day, what a day, what a day
G
What a day, these are the days


Chorus:
Em
Running the world
          F#m
It's the time of our lives
G                   A
Baby we won't ever die
         G         A            D
'Cause we're the young we're alright


D
We gotta stop this feeling

'Cause I don't wanna live twice
             G
We'd better start believing
                      D
Before we run out of time
                  A  G# G
Oh is it my imagination?
                D    A
Or do you feel good?


Pre-Chorus:
D                                D/F#
What a day, what a day, what a day
G                                
What a day, what a day, what a day
D                                D/F#
What a day, what a day, what a day
G
What a day, these are the days


Chorus:
Em
Running the world
          F#m
It's the time of our lives
G                   A
Baby we won't ever die
         G         A            D
'Cause we're the young we're alright


Guitar Solo: (2:26)
|-10-10-10-10-10-10-10-13-13-13-13-13-13-10-------10-------10-10-------10-10------------|
|-10-10-10-10-10-10-10-10-10-10-10-10-10-10-------10-------10-10-------10-10------------|
|-------------------------------------------12b14----12b14-------12b14-------12b14=14---|
|---------------------------------------------------------------------------------------|
|---------------------------------------------------------------------------------------|
|---------------------------------------------------------------------------------------|

|---------------------------------------------------------------------------------------|
|-13b15r-10------------------x-x-12-x-10-10b10.5-------10~----10~-----------------------|
|-----------12b14-12pb14-10--x-x-12-x-10-10b10.5-------10~----10~----10\----------------|
|----------------------------x-x----x------------12-12-----12-----12--------------------|
|---------------------------------------------------------------------------------------|
|---------------------------------------------------------------------------------------|

|-------------------14----14-14--14-14~----/17-17~--17-16-15~---------------------------|
|-15-15----17-------------------------------------------------15-15-17pb19-15----18b20--|
|-------14----14-14----14-----------------------------------------------------16--------|
|---------------------------------------------------------------------------------------|
|---------------------------------------------------------------------------------------|
|---------------------------------------------------------------------------------------|

|-------------------------15-16-17~~-------|
|-18b18.5--18-15-15-15~--------------------|
|------------------------------------------|
|------------------------------------------|
|------------------------------------------|
|------------------------------------------|

Chorus:
Em
Running the world
         F#m
It's the time of our lives
G                   A
Baby we won't ever die
Em
Fight till we fall
F#m
Standing tall
G               A
Time is on our side
        G         A             D
'Cause we're the young we're alright

D                   G           C
What a day, what a day, what a day
D                   G           C
What a day, what a day, what a day
D                   G           C
What a day, what a day, what a day
D                   G           C
What a day, what a day, what a day

               A    G# G    
Is it my imagination? (No)
                     A   G# G 
I said it's my imagination?(No, no, no, no)
               A   G# G
Is it my imagination?
                               D
We're the young we're alright yeah
00:00 / 00:00
Outros vídeos desta música
Repetir
Outros vídeos desta música
Composição de Danny Jones / Jason Perry / Julian Emery / Tom Fletcher
5.577 exibições
    • ½ Tom
    • A
    • Bb
    • B
    • C
    • Db
    • D
    • Eb
    • E
    • F
    • F#
    • G
    • Ab
  • Adicionar à lista

    0 comentários

    Ver todos os comentários

    Entre para oCifra Club PRO

    Tenha acesso a benefícios exclusivos no App e no Site

    • Chega de anúncios

    • Prioridade de compra em lançamentos

    • Mais recursos no app do Afinador

    • Atendimento Prioritário

    • Descontos nos produtos Cifra Club

    • Ajude a produzir mais conteúdo

    00:00 / 00:00

    Cifra Club Pro

    Aproveite o Cifra Club com benefícios exclusivos e sem anúncios
    Cifra Club Pro
    Aproveite o Cifra Club com benefícios exclusivos e sem anúncios
    OK