Cifra Club

Aprenda

Lost

Meat Puppets

Tab de baixo: Principal
(intro / verso)
|---------------------------|
|---------------------------|
|--2-----2--4--2--1--0------|
|-----2---------------------|

(refrão)
|---------------------------|
|--2-2-2-2-2----------------|
|-------------1-1-1-1-1-----|
|---------------------------|

(ponte)
|---------------------------|
|--2-----2-----2------------|
|-----2-----2-----2---------|
|---------------------------|
Composição de Curt Kirkwood
Colaboração e revisão:
  • daruan rodrigues
72 exibições

0 comentários

Ver todos os comentários

Conseguiu tocar?

0 Tocaram 0 Ainda não

Grave um vídeo tocando Lost e nos envie!

00:00 / 00:00
Outros vídeos desta música
Repetir Qualidade Automático
Outros vídeos desta música
00:00 / 00:00
Automático

Cifra Club Pro

Aproveite o Cifra Club com benefícios exclusivos e sem anúncios
Cifra Club Pro
Aproveite o Cifra Club com benefícios exclusivos e sem anúncios
OK