Cifra Club

Aprenda

Almost honest

Megadeth

Cifra: Principal (violão e guitarra)
tom: D
Intro



3x========================================

-------------------------------------------------------------
-------------------------------------------------------------                                
-------------------------------------------------------------
-----------2-----------0---2-----------------------------2---
--------2-----------2------0-----2------------------2----0---
-----0--------2--3---------------0-------0----------0--------





                                  Verse:

                                  I lied just a little

-------------------------------------------------------------
-------------------------------------------------------------      
----------7-------9\-----------------------------------------
----------7-------9\-----------------------------------------
---2------5-------7\--------2--------------------------------
---0------------------------0-------------------0------------





when I said I need you.  You stretched the truth  when you

-------------------------------------------------------------
-------------------------------------------------------------                    
-------------------------------------------------------------
-------------------------------------------2-----------0--2--
----------------------------------------2-----------2-----0--
---0---------------------0-----------0--------2--3-----------





said that you knew

-------------------------------------------------------------
-------------------------------------------------------------                                 
-------------------------------------------------------------
--------------------2-----------0---2------------------------
---2-------------2-----------2------0------2-----------------
---0--------0----------2--3----------------0------------0----





Just can't believe it.            There's nothing to say

-------------------------------------------------------------
-------------------------------------------------------------                               
-------------------------------------------------------------
-----2-----------0---2----------------------------2----------
--2-----------2------0--------2-------------------0----------
--------2--3------------------0------------------------------





I was almost honest        almost

gtr 1

-------------------------------------------------------------
-------------------------------------------------------------                                
-------------------------------------------------------------
-----------2-----------------0-----1-------------------------
--2--------0---------2-------0-----1------2~--2--0--1--2--2--
--0------------------0---------------------------------------

 

gtr 2

-------------------------------------------------------------
-------------------------------------------------------------                                
---------------------------------------4--4--x--x--x--x--8--\
---------------------------------------------x--x--x--x------
---------------------------------------2--2--x--x--x--x--6--\
-------------------------------------------------------------



                             Chorus:

                             Living alone can't stand this place

gtr 1            

-------------------------------------------------------------
-------------------------------------------------------------                               
------------------------------------------------------------
----------------------------------------------2--------------
---2--2--0--1--2--1--0-------2----------------0--------------
-----------------------------0-------------------------------



gtr2                             =================4x=========

-------------------/7-------7\-------------------------------
-------------------/7-------7\------5--------5--------2------                
----/11--11---\------------------------4--------4--------2---
------9---9---\------------------2--------2--------2---------
-------------------------------------------------------------
-------------------------------------------------------------





It's four in the morning and I still see your face

gtr 1

-------------------------------------------------------------
-------------------------------------------------------------                                  
-------------------------------------------------------------
------------------2--------2------------------------------2--
-----2------------0--------0-----------------------2------0--
-----0------------------------------2----3--2--0---0---------





gtr 2 (cont)

=====================

-------------------------------------------------------------
---2----------3----------------------------------------------                                
------2----------2-------------------------------------------
---------2h4--------4----------------------------------------
-------------------------------------------------------------
-------------------------------------------------------------



I was nearly pure when I said I loved you.  You were semi sincere,

when you said I'd bleed for you.



gtr 1                                            ============

-------------------------------------------------------------
-------------------------------------------------------------                               
-------------------------------------------------------------
-------------------------2----2---------------------2--------
-----------2-------------0----0------------------2-----------
-----------0-----------------------2----3--2--0--------2--3--



gtr 1

======================================fig B
--------------------------------------
--------------------------------------
--------------------------------------
----0----2---------------------------
-2-------0-----2----------------------
---------------0---0--0--0--0--0--0---





2nd Verse (play fig B)

with fills:

2x===================
---------------------------
---------------------------
-------9\7---7----7\-------
---------------------------
-------7\5---5----5\-------
---------------------------



You were almost honest    almost

-------------------------------------------------------------
-------------------------------------------------------------                                 
-------------------------------------------------------------
------2-----------0---2---------------------2----------------
---2-----------2------0---2-----------------0----2-----------
---------2--3-------------0--0--0--0--0--0-------0--0--0--0--

-------------------------------------------------------------
-------------------------------------------------------------                                    
-------------------------------------------------------------
-------2---------0----1--------------------------------------
-------0---2-----0----1-----2~---2--0--1--2--2--0--1--2--2---
-0--0------0-------------------------------------------------

-------------------------
-------------------------
-------------------------
-------------------------
-0--1--2------1------0---
-------------------------





Chorus (play same chorus)

Living alone, falling from grace I want to atone

but theres just empty space

can't face tomorrow now you're not coming back

walked off in the night and just left me the tracks





Bridge



I question your call by the tone of your voice

I know I should hang up but I don't have a choice

It happened that night whe you told me to go

Don't ask who's to blame I don't know.



Fig 3========================================================

----------0---------0---------0-------------0----------0-----
-------------------------------------------------------------                                    
-------------9---------9-------------8----------8------------
-----9----------9---------9-------9-----9----------9-------7-
-------------------------------------------------------------
-------------------------------------------------------------



=============================================================

---------0--------0-------0---------0--------0-------0-------
-------------------------------------------------------------                                    
--7---------7----------------6---------6-------6-----------5-
-----7---------7------7---------7---------7------7------5----
-------------------------------------------------------------
-------------------------------------------------------------



================

-----0---------0------0--------0-------0-----0--------0------
-------------------------------------------------------------                                 
--------5----------------7-------7--------------9-------9----
-5---------5-------7--------7-------7-----9--------9-------9-
-------------------------------------------------------------
-------------------------------------------------------------

-------------------------------
-10--------9------9--------9---
-----9--------9------9---------play fig 3
--------9---------------9------
-------------------------------
-------------------------------





Lead (w/fig 2 7x)



--------------------------------9--------------------------9-
------------------------------------8-8-8--8-8--8-8--8-8-----                                 
---11b(12)--rb11---9-----------------------------------------
-------------------------------------------------------------
-------------------------------------------------------------
-------------------------------------------------------------

---------------------------9----------------------------9----
-8-8-8---8-8---8-8---8-8------8-8-8--8-8--8-8--8-8-----------                                
-------------------------------------------------------------
-------------------------------------------------------------
-------------------------------------------------------------
-------------------------------------------------------------

-------------------------------------------------------------
--------8---8--8---8---7b(8)-rb7-----------------------------                                   
--------7-------------------------9----9~---9~---9~----------
--/9-----------9---------------------------------------------
-------------------------------------------------------------
-------------------------------------------------------------

-------------------------------------------------------------
--10---10b(12)---8-10--------------------9-------/12-15-12---                                 
-----------------------9----9~----9~-------------------------
---------------------------------------------11--------------
-------------------------------------------------------------
-------------------------------------------------------------

---------12---------------12------------12-----------------12
-15b(16)----15-12-15b(16)----12-14b(15)----15-12-------------                                   
--------------------------------------------------14b(16)----
-------------------------------------------------------------
-------------------------------------------------------------
-------------------------------------------------------------

---------------------------12--------------------------------
-15-12-15b(17)--15~------x----16-12-----------------15p12----                                 
-----------------------x------------14b(16)-rb14p12----------
-------------------------------------------------------------
-------------------------------------------------------------
-------------------------------------------------------------

----------12-------------------------------------------------
-------------12h15-12--------------------------------15------                                 
-14b(16)--------------14b(16)-rb14p12----14b(16)hold---------
-------------------------------------------------------------
-------------------------------------------------------------
-------------------------------------------------------------

----------12---------------------------------18----18b(19)~--
-------------------------------------------------------------                                  
-14b(16)------14b(16)--rb14p12--14--12~------15--------------
-------------------------------------------------------------
-------------------------------------------------------------
-------------------------------------------------------------

--15b(18)---15b(17)---15p12--------15b(17)----15~~~~---15p12-
------------------------------12-----------------------------                                 
-------------------------------------------------------------
-------------------------------------------------------------
-------------------------------------------------------------
-------------------------------------------------------------

------15b(18)-----15~~---15p12-------12----------------------
-12----------------------------12h15----12-15p12-15p12-------                                 
-------------------------------------------------------12h14-
-------------------------------------------------------------
-------------------------------------------------------------
-------------------------------------------------------------

--------------------11--------14--14----------16----17-----18
-12---------------------11-----------------------------------                                   
----12-14b(16)hold------------14--14---14/16-----14-----18---
-------------------------------------------------------------
-------------------------------------------------------------
-------------------------------------------------------------

-----19~~~~~~~-----------------------------------------------
-16----------------------------------------------------------                                    
-------------------------------------12-14p12-------------12-
----------------------------------12----------14p12-12h14----
----------------------12-12-12h14----------------------------
-------------------------------------------------------------

-------------------
----15p12----------
-12--------14p12---
-------------------
-------------------
-------------------





Outro

-------------------------------------------------------------
-------------12--12-------------12------12---------12--------                                   
--14b(16)--------------14b(16)------14------14-----------12--
-------------------------------------------------------------
-------------------------------------------------------------
-------------------------------------------------------------



                     ========================================

-------------------------------------------------------------
--12----12-----12-------------12--12----------12-----------12                                
--12----12-----------14b(16)----------14b(16)-----14b(16)----
-------------------------------------------------------------
-------------------------------------------------------------
-------------------------------------------------------------



==============================play til end

--------------------------------------
-----12--------12---12--12--12--------
-14------14----12---12--12--12--------
--------------------------------------
--------------------------------------
--------------------------------------



I was almost honest

-------------------------------------------------------------
-------------------------------------------------------------                                    
----------7---9----------------------------------------------
--2-------7---9-----------2--------------------0---2---------
----------5---7-----------0---3--2--0----2--3----------------
------0------------0--0---------------------------------0----



almost honest. etc.,

-------------------------------------------------------------
-------------------------------------------------------------                                    
---7----9---------------------------------------------7----9-
---7----9-----------2---------------------0---2-------7----9-
---5----7-----------0----3--2--0----2--3--------------5----7-
-------------0--0---------------------------------0----------

-------------------------------------------------------------
-------------------------------------------------------------                                    
---------------------------------------------7---9-----------
--------2------------------------------------7---9---------2-
--------0-----------4----5--4---------2------5---7---------0-
-0--0--------0--0---2----3--2--0------0--0-----------0--0----

-------------------------------------------------------------
-------------------------------------------------------------                                  
-------------------------------7---9-------------------------
-------------------0--2--------7---9----------2--------------
--3--2--0----2--3--------------5---7----------0---3--2--0----
---------------------------0-----------0--0------------------

-----------
-----------
-----------
-------0---fade out
-2--3------
-----------




h = hammeron                    x = ghost note

p = pulloff                     b = bend

/\ = slide                     rb = release bend

t  tap                         tr = trill
Composição de Dave Mustaine / M Friedman
8.900 exibições
    • ½ Tom
    • A
    • Bb
    • B
    • C
    • Db
    • D
    • Eb
    • E
    • F
    • F#
    • G
    • Ab
  • Adicionar à lista

    0 comentários

    Ver todos os comentários

    Conseguiu tocar?

    2 Tocaram 0 Ainda não

    Grave um vídeo tocando Almost honest e nos envie!

    00:00 / 00:00
    outros vídeos desta música
    repetir qualidade Automático
    Outros vídeos desta música
    00:00 / 00:00
    Automático

    Cifra Club Pro

    Aproveite o Cifra Club com benefícios exclusivos e sem anúncios
    Cifra Club Pro
    Aproveite o Cifra Club com benefícios exclusivos e sem anúncios
    OK