Cifra Club

Aprenda

Angry Again

Megadeth

Cifra: Principal (violão e guitarra)
tom: G
A letra da música aparece em baixo dá Tablatura!

1ª parte da intro.
|----------------------------------------
|----------------------------------------
|-------------------3-4-----7-8----------
|--0-1------4-5---------5-------9--------
|------2--------6---------6-------10-----
|---------3-------7----------------------

2ª parte da introdução  .
|---------------------------------|----------------------------------|
|---------------------------------|----------------------------------|
|---------------------------------|----------------------------------|
|-----2-----2---------------------|-----2-----2----------------------|
|---2---2-3---3-2-2-----2---------|---2---2-3---3-2-2-----2-4-3-2----|
|-0---------------0-0-0-0-0-0-0-0-|-0---------------0-0-0-0-5-4-3----|
 PM                PM--|  PM--------|                PM-|

|---------------------------------|---------------------------|
|---------------------------------|---------------------------|
|---------------------------------|-------------7-----5-------|
|-----2-----2---------------------|-------------7-----5-------|
|---2---2-3---3-2-2-----2-4-3-2---|-4-3-2---4-3-5-----3-------|
|-----------------0-0-0-0-5-4-3---|-5-4-3---5-4---0-0---3b-0--|
                   PM--|                         PM-|

Verso 1:
|---------------------------------|----------------------------------|
|---------------------------------|----------------------------------|
|---------------------------------|----------------------------------|
|-----2-----2---------------------|-----2-----2----------------------|
|---2---2-3---3-2-2-----2---------|---2---2-3---3-2-2-----2-4-3-2----|
|-----------------0-0-0-0-0-0-0-0-|-0---------------0-0-0-0-5-4-3----|
                   PM-|   PM--------|                PM-|

|---------------------------------|----------------------------------|
|---------------------------------|----------------------------------|
|---------------------------------|---------------7-----5------------|
|-----2-----2---------------------|-----2-----2---7-----5------------|
|---2---2-3---3-2-2-----2---------|---2---2-3---3-5-----3------------|
|-----------------0-0-0-0-0-0-0-0-|-0---------------0-0---3b-0-------|
                   PM-|   PM--------|              PM-|

|---------------------------------|----------------------------------|
|---------------------------------|----------------------------------|
|---------------------------------|----------------------------------|
|-----2-----2---------------------|-----2-----2----------------------|
|---2---2-3---3-2-2-----2---------|---2---2-3---3-2-2-----2-4-3-2----|
|-0---------------0-0-0-0-0-0-0-0-|-0---------------0-0-0-0-5-4-3----|
 PM                PM--|  PM--------|                PM-|

|---------------------------------|---------------------------|
|---------------------------------|---------------------------|
|---------------------------------|-------------7-----5-------|
|-----2-----2---------------------|-------------7-----5-------|
|---2---2-3---3-2-2-----2-4-3-2---|-4-3-2---4-3-5-----3-------|
|-----------------0-0-0-0-5-4-3---|-5-4-3---5-4---0-0---3b-0--|
                   PM--|                         PM-|

The more of you that I inspect
The more of me I see reflect
The more I try to read your lips
The more the mask you're wearing rips
But when I seek out your voice
My ears are overcome with noise
You show and tell with greatest ease
Raving impossibilities
------------------------------------------

Ponte (a 1ª parte da intro.)
|----------------------------------------
|----------------------------------------
|-------------------3-4-----7-8----------
|--0-1------4-5---------5-------9--------
|------2--------6---------6-------10-----
|---------3-------7----------------------

Refrão:
|------------------------------------|--------------------------------------|
|------------------------------------|--------------------------------------|
|------------------------------------|--------------------------------------|
|-----7/9---127/9-------5---7-----9-|---7/9---12----5-------7---------9----|
|-----5/7---105/7-------3---5-----7-|---5/7---10----3-------5---------7----|
|-0-0-----0---------0--0---0---0-0---|-0-----0----0------0-0-----0-0-0------|

|------------------------------------|------------------------------------------------|
|------------------------------------|------------------------------------------------|
|------------------------------------|------------------------------------------------|
|---7/9---127/9-------5---7-----9---|---7/9---12---5-------4--------2-------4--------|
|---5/7---105/7-------3---5-----7---|---5/7---10---3-------2--------0-------2--5--2--|
|-0-----0---------0--0---0---0-0-----|-0-----0----0-----0-0------0-0-----0-0----3--0--|

Engaged in crime I grasp my throat
Enraged my mind starts to smoke
Enforce a mental overload
Angry again, angry again, angry ow
----------------------------------------

Verso 2:
|---------------------------------|----------------------------------|
|---------------------------------|----------------------------------|
|---------------------------------|----------------------------------|
|-----2-----2---------------------|-----2-----2----------------------|
|---2---2-3---3-2-2-----2---------|---2---2-3---3-2-2-----2-4-3-2----|
|-0---------------0-0-0-0-0-0-0-0-|-0---------------0-0-0-0-5-4-3----|
 PM                PM--|  PM--------|                PM-|

|---------------------------------|---------------------------|
|---------------------------------|---------------------------|
|---------------------------------|-------------7-----5-------|
|-----2-----2---------------------|-------------7-----5-------|
|---2---2-3---3-2-2-----2-4-3-2---|-4-3-2---4-3-5-----3-------|
|-----------------0-0-0-0-5-4-3---|-5-4-3---5-4---0-0---3b-0--|
                   PM--|                         PM-|

And when the story takes a twist
If folds like a contortionist
Slight of hand and quick exchange
The old tricks have been rearranged
----------------------------------------

Ponte (a 1ª parte da intro.)
|----------------------------------------
|----------------------------------------
|-------------------3-4-----7-8----------
|--0-1------4-5---------5-------9--------
|------2--------6---------6-------10-----
|---------3-------7----------------------

Refrão:
|------------------------------------|--------------------------------------|
|------------------------------------|--------------------------------------|
|------------------------------------|--------------------------------------|
|-----7/9---127/9-------5---7-----9-|---7/9---12----5-------7---------9----|
|-----5/7---105/7-------3---5-----7-|---5/7---10----3-------5---------7----|
|-0-0-----0---------0--0---0---0-0---|-0-----0----0------0-0-----0-0-0------|

|------------------------------------|------------------------------------------------|
|------------------------------------|------------------------------------------------|
|------------------------------------|------------------------------------------------|
|---7/9---127/9-------5---7-----9---|---7/9---12---5-------4--------2-------4--------|
|---5/7---105/7-------3---5-----7---|---5/7---10---3-------2--------0-------2--5--2--|
|-0-----0---------0--0---0---0-0-----|-0-----0----0-----0-0------0-0-----0-0----3--0--|

Engaged in crime I grasp my throat
Enraged my mind starts to smoke
Enforce a mental overload
Angry again, angry again, angry
-------------------------------------

Ponte 2:
|------------------------------------|--------------------------------------|
|------------------------------------|--------------------------------------|
|------------------------------------|--------------------------------------|
|------------------------------------|--------------------------------------|
|---2-2-2---2-2-2---3-3-3---3-3-3----|---4-4-4---4-4-4---5-5-5---5-5-5------|
|---0-0-0---0-0-0---1-1-1---1-1-1----|---2-2-2---2-2-2---3-3-3---3-3-3------|
 P.m------------->
                                                              
|-----------------------------------|-------------------------------------|
|-----------------------------------|-------------------------------------|
|-----------------------------------|-------------------7-------5---------|
|-----------------------------------|-------------------7-------5---------|
|---6-6-6---6-6-6---7-7-7---7-7-7---|----8-8-8---8-8-8--5-------3---------|
|---4-4-4---4-4-4---5-5-5---5-5-5---|----6-6-6---6-6-6--5--0-0--3-3b-0----|

The searing of the sinew
My body fights for air
The ripping of the tissue
My lungs begin to tear
Gravity's got my bones
It pulls my flesh away
The steam finally dissipates
I make out my sweaty face
----------------------------------------

Solo:
Guitarra 1:
|---------------------------------|----------------------------------|
|---------------------------------|--------12-10---------------------|
|-----4-/-9-----------------------|-4-/-9-----------12-11------------|
|------------9b10-------r9--------|------------------------12--------|
|---------------------------------|----------------------------------|
|---------------------------------|----------------------------------|

Guitarra 2:
 /---------------------------------------- 
|----------------------------------|--------|
|o---------------------------------|-------o|
|--9-------------7-------5---------|--------|
|--9-------------7-------5---------|--------|
|o-7-------------5-------3---------|-------o|
|------0-0-0-0-0-----0-0-----3b-0--|--------|

Guitarra 1:
|--------------------------0h8h10-0h7h8-0h8h10-0h10h12-0h12h14----------|
|-------0h5h7-0h7h8-0h8h10----------------------------------------------|
|-0h7h9-----------------------------------------------------------------|
|------------------------------------------=----------------------------|
|-----------------------------------------------------------------------|
|-----------------------------------------------------------------------|

|----12-15-14p12------------------|
|---12----------------------------|
|--12-----------------------------|
|-14------------------------------|
|---------------------------------|
|---------------------------------| 

Guitarra 1:
|---------------------------------|----------------------------------|
|---------------------------------|----------------------------------|
|---------------------------------|----------------------------------|
|-7b9-(9)-(9)-(9)...--------------|-----9-----9-----5-6-----8-9------|
|---------------------------------|-7-10--7-10-10-7-----8-7-----11-10|
|---------------------------------|----------------------------------|

Guitarra 2:
|---------------------------------|----------------------------------|
|---------------------------------|----------------------------------|
|---------------------------------|----------------------------------|
|-----2-----2-----0-1-------------|-----2-----2-----0-1-----4-5------|
|---2---2-3---3-2-----2-----------|---2---2-3---3-2-----2-------6----|
|-0---------------------3-2-1-2-3-|-0---------------------3-------7--|

Guitarra 1:
|---------------------------------|-------------17b19-17b19-17-15--22b24-22b24|
|---------------------------------|-----------15-----------------17-----------|
|-12/14------14/16----------------|14-14/16-16--------------------------------|
|----------------------(12)r11b12-|-------------------------------------------|
|-10/12------12/14----------------|-------------------------------------------|
|---------------------------------|-------------------------------------------|

Guitarra 2:
|---------------------------------|----------------------------------|
|---------------------------------|----------------------------------|
|---------------------------------|----------------------------------|
|-3------------1-2----------------|-3---------------1-2--------------|
|-3----------------4-3------------|-3-------------------4-3----------|
|-1--------------------3-2-1-2----|-1-----------------------3-2-0-1--|

Verso 3:
|---------------------------------|----------------------------------|
|---------------------------------|----------------------------------|
|---------------------------------|----------------------------------|
|-----2-----2---------------------|-----2-----2----------------------|
|---2---2-3---3-2-2-----2---------|---2---2-3---3-2-2-----2-4-3-2----|
|-----------------0-0-0-0-0-0-0-0-|-0---------------0-0-0-0-5-4-3----|
                   PM-|   PM--------|                PM-|

|---------------------------------|----------------------------------|
|---------------------------------|----------------------------------|
|---------------------------------|---------------7-----5------------|
|-----2-----2---------------------|-----2-----2---7-----5------------|
|---2---2-3---3-2-2-----2---------|---2---2-3---3-5-----3------------|
|-----------------0-0-0-0-0-0-0-0-|-0---------------0-0---3b-0-------|
                   PM-|   PM--------|              PM-|

|---------------------------------|----------------------------------|
|---------------------------------|----------------------------------|
|---------------------------------|----------------------------------|
|-----2-----2---------------------|-----2-----2----------------------|
|---2---2-3---3-2-2-----2---------|---2---2-3---3-2-2-----2-4-3-2----|
|-0---------------0-0-0-0-0-0-0-0-|-0---------------0-0-0-0-5-4-3----|
 PM                PM--|  PM--------|                PM-|

|---------------------------------|---------------------------|
|---------------------------------|---------------------------|
|---------------------------------|-------------7-----5-------|
|-----2-----2---------------------|-------------7-----5-------|
|---2---2-3---3-2-2-----2-4-3-2---|-4-3-2---4-3-5-----3-------|
|-----------------0-0-0-0-5-4-3---|-5-4-3---5-4---0-0---3b-0--|
                   PM--|                         PM-|

Association that I choose
Game I inevitably lose
Governed by laws set up by me
Fracture it's jaw to let me be
A cut-out cardboard condo maze
Filled with an insubordinate race
Irrational youths stop to stare
As music rubber hosed the air
--------------------------------------

Ponte (a 1ª parte da intro.)
|----------------------------------------
|----------------------------------------
|-------------------3-4-----7-8----------
|--0-1------4-5---------5-------9--------
|------2--------6---------6-------10-----
|---------3-------7----------------------

Refrão 2:
|------------------------------------|--------------------------------------|
|------------------------------------|--------------------------------------|
|------------------------------------|--------------------------------------|
|-----7/9---127/9-------5---7-----9-|---7/9---12----5-------7---------9----|
|-----5/7---105/7-------3---5-----7-|---5/7---10----3-------5---------7----|
|-0-0-----0---------0--0---0---0-0---|-0-----0----0------0-0-----0-0-0------|

|------------------------------------|-----------------------------------------
|------------------------------------|-----------------------------------------
|------------------------------------|-----------------------------------------
|---7/9---127/9-------5---7-----9---|---7/9---12---5-------4--------2-------4-
|---5/7---105/7-------3---5-----7---|---5/7---10---3-------2--------0-------2-
|-0-----0---------0--0---0---0-0-----|-0-----0----0-----0-0------0-0-----0-0---

------------------------------|
------------------------------|
------------------------------|
----4--------2-------4--------|
----2--------0-------2--5--2--|
0-0------0-0-----0-0----3--0--|

|------------------------------------|--------------------------------------|
|------------------------------------|--------------------------------------|
|------------------------------------|--------------------------------------|
|-----7/9---127/9-------5---7-----9-|---7/9---12----5-------7---------9----|
|-----5/7---105/7-------3---5-----7-|---5/7---10----3-------5---------7----|
|-0-0-----0---------0--0---0---0-0---|-0-----0----0------0-0-----0-0-0------|

|------------------------------------|------------------------------------------------|
|------------------------------------|------------------------------------------------|
|------------------------------------|------------------------------------------------|
|---7/9---127/9-------5---7-----9---|---7/9---12---5-------4--------2-------4--------|
|---5/7---105/7-------3---5-----7---|---5/7---10---3-------2--------0-------2--5--2--|
|-0-----0---------0--0---0---0-0-----|-0-----0----0-----0-0------0-0-----0-0----3--0--|

Engaged in crime I grasp my throat
Enraged my mind starts to smoke
Enforce a mental overload
Angry again, angry again, angry again
And again and again, AGAIN
Engaged in crime I grasp my throat
Enraged my mind starts to smoke
Enforce a mental overload
Angry again, angry again, angry HAOW!
--------------------------------------------

Final:
|----------------------------------|-----|
|----------------------------------|-----|
|-----------------3-4--------------|-----|
|-0-1-----4-5---------5------------|--2--|
|-----2-------6---------6----------|--2--|
|-------3-------7----------2-1-2-3-|--0--|

-------------------------------
Ae vai outra versão p/ o solo:

Guitarra 1:(Friedman)
|---------------------------------------------|
|---------------------------------------------|
|------------------------------/16-14--12-11~-|
|-9--/14--9-9b10~~----9--/14-----------------|
|---------------------------------------------|
|---------------------------------------------|
|
|Guitarra 2:(Mustaine)
|/---------------------------------------- 
|----------------------------------|--------|
|o---------------------------------|-------o|
|--9-------------7-------5---------|--------|
|--9-------------7-------5---------|--------|
|o-7-------------5-------3---------|-------o|
|------0-0-0-0-0-----0-0-----3b-0--|--------|

|--------------------0-7-12-0-7-12-0-7-10-|
|-------------0-8-12----------------------|
|-7-7--0-9-12-----------------------------|
|-----------------------------------------|
|-----------------------------------------|
|-----------------------------------------|

|-0-7-10-0-10-14-0-12-14-15-14h15p14p12-14-12--12---|
|--------------------------------------------15--15-|
|---------------------------------------------------|
|---------------------------------------------------|
|---------------------------------------------------|
|---------------------------------------------------|

|----------------------|
|-15b17r15-12-15-12~~--|
|----------------------|
|----------------------|
|----------------------|
|----------------------|

|----12-12h17p12---------------------------|
|-15------------15p12--12---------------14-|
|--------------------14--14b16r14-12----14-|
|------------------------------------14----|
|------------------------------------------|
|------------------------------------------|

|-----------------------------|
|-----------------------------|
|-12-14-12--(12)b13r12b13r12-|
|-----------------------------|
|-----------------------------|
|-----------------------------|

Guitarra 1:
|----------------------------------------------------|
|----------------------------------------------------|
|-3b4r3b4-3b4-3b4-3b4-{3}{3}{3}{3}{3}{3}{3}{3}{3}{3}-|
|----------------------------------------------------|
|----------------------------------------------------|
|----------------------------------------------------|
|
|Guitarra 2:
|---------------------------------|----------------------------------|
|---------------------------------|----------------------------------|
|---------------------------------|----------------------------------|
|-----2-----2-----0-1-------------|-----2-----2-----0-1-----4-5------|
|---2---2-3---3-2-----2-----------|---2---2-3---3-2-----2-------6----|
|-0---------------------3-2-1-2-3-|-0---------------------3-------7--|

Guitarra 1:
|----------------------------------------------|
|----------------------------------------------|
|-3h4p3p0------4-----4-------------------------|
|---------2--5---2-5---5-2--6-7------9-10------|
|-------------------------------9-6-------12-9-|
|----------------------------------------------|
|
|Guitarra 2:
|---------------------------------|----------------------------------|
|---------------------------------|----------------------------------|
|---------------------------------|----------------------------------|
|-3------------1-2----------------|-3---------------1-2--------------|
|-3----------------4-3------------|-3-------------------4-3----------|
|-1--------------------3-2-1-2----|-1-----------------------3-2-0-1--|

|--------------------------------------|
|--------------------------------------|
|---------------------------/4b5r4b5~~-|
|-4/7-7-7-7-7-7/9-9-9-9-9-------------|
|--------------------------------------|
|--------------------------------------|

|------------------------------17b19-17b19r17b19r17b19r17-|
|---------------------16h17p14----------------------------|
|-4-4-4/14-14-14-16~~-------------------------------------|
|---------------------------------------------------------|
|---------------------------------------------------------|
|---------------------------------------------------------|

|-19h20p19p17-19p17--------------17-19-|
|------------------20-19-17-19-20------|
|--------------------------------------|
|--------------------------------------|
|--------------------------------------|
|--------------------------------------|

|-22b24-22b24-22b24~~~-|
|-----------------------|
|-----------------------|
|-----------------------|
|-----------------------|
|-----------------------|
Composição de Dave Mustaine
Colaboração e revisão:
  • Taino Vieira
26.369 exibições
    • ½ Tom
    • A
    • Bb
    • B
    • C
    • Db
    • D
    • Eb
    • E
    • F
    • F#
    • G
    • Ab
  • Adicionar à lista

    0 comentários

    Ver todos os comentários

    Conseguiu tocar?

    3 Tocaram 0 Ainda não

    Grave um vídeo tocando Angry Again e nos envie!

    00:00 / 00:00
    outros vídeos desta música
    repetir qualidade Automático
    Outros vídeos desta música
    00:00 / 00:00
    Automático

    Cifra Club Pro

    Aproveite o Cifra Club com benefícios exclusivos e sem anúncios
    Cifra Club Pro
    Aproveite o Cifra Club com benefícios exclusivos e sem anúncios
    OK