Cifra Club

Ashes In Your Mouth

Megadeth

Cifra: Principal (violão e guitarra)
Selo Cifra Club: esta cifra foi revisada para atender aos critérios oficiais da nossa Equipe de Qualidade.
tom: A
    Pm-----                       Pm-----

e-----------------------------------------------------------------------------|
B*---------------------------------------------------------------------------*|
G--15--14--12--10-------------------------------------------------------------|
D--15--14--12--10----2----3-----2-2--2-------------2----3-----2-2--2----------|
A*-13--12--10--8---2-2----3--3--2-2--2-5-5-3-3---2-2----3--3--2-2--2-5-5-3-3-*|
E------------------0----1----1--0----0-----------0----1----1--0-0-------------|



  Bb  A   G   F

e----------------|----------------------------------------------------|
B----------------|----------------------------------------------------|
G-15--14--12--10-|----------------------------------------------------|
D-15--14--12--10-|--------------6--7--8--9--11--10--9--8--10--9--8--7-|
A-13--12--10--8--|-7--8--9--10----------------------------------------|
E----------------|----------------------------------------------------|

e--------------------------------------------------------|
B--------------------------------------------------------|
G--------------------------------------------------------|
D---------------7--8--9--10--12--11--10--9--11--10--9--8-|
A-8--9--10--11-------------------------------------------|
E--------------------------------------------------------|

e------------------------------------------------------------|
B------------------------------------------------------------|
G------------------------------------------------------------|
D----------------8--9--10--11--13--12--11--10--12--11--10--9-|
A-9--10--11--12----------------------------------------------|
E------------------------------------------------------------|




                                 E

e-----------------------------------------|
B-----------------------------------------|
G--------------------------------9-9-9-9\-|
D-----------------9--10--11--12--9-9-9-9\-|
A-10--11--12--13-----------------7-7-7-7\-|
E-----------------------------------------|





   E   F# G  C  G  E  F# G   C  G  D  G    E   F# G  C  G  E  F# G   C  G  D 
  G

(play this two times)
e---------------------------------------|----------------------------------------|
B*--------------------------------------|---------------------------------------*|
G---------------------------------------|----------------------------------------|
D--2---------5---------------5----------|------------5---------------5-----------|
A*-2---4--5--3--5--2--4--5---3--5--5--5-|--2---4--5--3--5--2--4--5---5--5--5--5-*|
E--0---2--3--3--3--0--2--3---3--3--5--3-|--0---2--3--3--3--0--2--3---3--3--5--3--|




1st Verse



  E

  People have round shoulders           from     fairing heaby loads

e----------------------|----------------------|-----------------------|
B----------------------|----------------------|-----------------------|
G----------------------|----------------------|-----------------------|
D-2--2----2---2--------|-2--2----2---2--------|--2--2----2---2--------|
A-2--2-x--2-x-2--x--x--|-2--2-x--2-x-2--x--x--|--2--2-x--2-x-2--x--x--|
E-0----x--0-x-0--x--x--|-0----x--0-x-0--x--x--|--0----x--0-x-0--x--x--|



                Bb A     G    E

                Oh an' as     soldiers liberate       them      an' laying

e---------------------------|----------------------|-----------------------|
B---------------------------|----------------------|-----------------------|
G---------------------------|----------------------|-----------------------|
D-2--2----2-----3--2--2--0--|-2--2----2---2--------|--2--2----2---2--------|
A-2--2-x--2--x--1--0--0--x--|-2--2-x--2-x-2--x--x--|--2--2-x--2-x-2--x--x--|
E-0----x--0--x-----------3--|-0----x--0-x-0--x--x--|--0----x--0-x-0--x--x--|


                                          Bb A     G     Bb A     G

  mines along there roads                                         Sor-

e------------------------|----------------------------|---------------|
B------------------------|----------------------------|---------------|
G------------------------|----------------------------|--3--2--2------|
D-2--2----2---2----------|--2--2----2-----3--2--2--0--|--3--2--2--5---|
A-2--2-x--2-x-2---x--x---|--2--2-x--2--x--1--0--0--x--|--1--0--0--5---|
E-0----x--0-x-0---x--x---|--0----x--0--x-----------3--|-----------3---|



  E

  row     paid for  valour                 is too much to    recall

e----------------------|----------------------|-----------------------|
B----------------------|----------------------|-----------------------|
G----------------------|----------------------|-----------------------|
D-2--2----2---2--------|-2--2----2---2--------|--2--2----2---2--------|
A-2--2-x--2-x-2--x--x--|-2--2-x--2-x-2--x--x--|--2--2-x--2-x-2--x--x--|
E-0----x--0-x-0--x--x--|-0----x--0-x-0--x--x--|--0----x--0-x-0--x--x--|



                Bb A     G    E

                Oh of   the   countless corpses       piled up      along

e---------------------------|----------------------|-----------------------|
B---------------------------|----------------------|-----------------------|
G---------------------------|----------------------|-----------------------|
D-2--2----2-----3--2--2--0--|-2--2----2---2--------|--2--2----2---2--------|
A-2--2-x--2--x--1--0--0--x--|-2--2-x--2-x-2--x--x--|--2--2-x--2-x-2--x--x--|
E-0----x--0--x-----------3--|-0----x--0-x-0--x--x--|--0----x--0-x-0--x--x--|


                                          Bb A     G     Bb A     G

    the wailing wall

e------------------------|----------------------------|---------------|
B------------------------|----------------------------|---------------|
G------------------------|----------------------------|--3--2--2------|
D-2--2----2---2----------|--2--2----2-----3--2--2--0--|--3--2--2--5---|
A-2--2-x--2-x-2---x--x---|--2--2-x--2--x--1--0--0--x--|--1--0--0--5---|
E-0----x--0-x-0---x--x---|--0----x--0--x-----------3--|-----------3---|




  E   F# G  C  G  E  F# G   C  G  D  G    E   F# G  C  G  E  F# G   C  G  D  
G

e--------------------------------------|---------------------------------------|
B--------------------------------------|---------------------------------------|
G--------------------------------------|---------------------------------------|
D-2---------5---------------5----------|------------5---------------5----------|
A-2---4--5--3--5--2--4--5---3--5--5--5-|--2---4--5--3--5--2--4--5---5--5--5--5-|
E-0---2--3--3--3--0--2--3---3--3--5--3-|--0---2--3--3--3--0--2--3---3--3--5--3-|




2nd Verse



  E

Melting  down all  metals             turning  plows an' shears to swords

e----------------------|----------------------|---------------------------|
B----------------------|----------------------|---------------------------|
G----------------------|----------------------|---------------------------|
D-2--2----2---2--------|-2--2----2---2--------|--2--2----2---2------------|
A-2--2-x--2-x-2--x--x--|-2--2-x--2-x-2--x--x--|--2--2-x--2-x-2--x--x------|
E-0----x--0-x-0--x--x--|-0----x--0-x-0--x--x--|--0----x--0-x-0--x--x------|



                Bb A     G    E

                         To shun words from the Bible           do we need

e---------------------------|----------------------|-----------------------|
B---------------------------|----------------------|-----------------------|
G---------------------------|----------------------|-----------------------|
D-2--2----2-----3--2--2--0--|-2--2----2---2--------|--2--2----2---2--------|
A-2--2-x--2--x--1--0--0--x--|-2--2-x--2-x-2--x--x--|--2--2-x--2-x-2--x--x--|
E-0----x--0--x-----------3--|-0----x--0-x-0--x--x--|--0----x--0-x-0--x--x--|


                                          Bb A     G     Bb A     G

  implements of war?

e------------------------|----------------------------|---------------|
B------------------------|----------------------------|---------------|
G------------------------|----------------------------|--3--2--2------|
D-2--2----2---2----------|--2--2----2-----3--2--2--0--|--3--2--2--5---|
A-2--2-x--2-x-2---x--x---|--2--2-x--2--x--1--0--0--x--|--1--0--0--5---|
E-0----x--0-x-0---x--x---|--0----x--0--x-----------3--|-----------3---|



  E

  Chalklines an' red puddles               of    those who have been slain

e----------------------|----------------------|---------------------------|
B----------------------|----------------------|---------------------------|
G----------------------|----------------------|---------------------------|
D-2--2----2---2--------|-2--2----2---2--------|--2--2----2---2------------|
A-2--2-x--2-x-2--x--x--|-2--2-x--2-x-2--x--x--|--2--2-x--2-x-2--x--x------|
E-0----x--0-x-0--x--x--|-0----x--0-x-0--x--x--|--0----x--0-x-0--x--x------|



                Bb A     G    E

                       Destiny,  that   crooked  schemer         says the

e---------------------------|----------------------|-----------------------|
B---------------------------|----------------------|-----------------------|
G---------------------------|----------------------|-----------------------|
D-2--2----2-----3--2--2--0--|-2--2----2---2--------|--2--2----2---2--------|
A-2--2-x--2--x--1--0--0--x--|-2--2-x--2-x-2--x--x--|--2--2-x--2-x-2--x--x--|
E-0----x--0--x-----------3--|-0----x--0-x-0--x--x--|--0----x--0-x-0--x--x--|


                                          Bb A     G     Bb A     G

  dead shall rise              again!

e------------------------|----------------------------|---------------|
B------------------------|----------------------------|---------------|
G------------------------|----------------------------|--3--2--2------|
D-2--2----2---2----------|--2--2----2-----3--2--2--0--|--3--2--2--5---|
A-2--2-x--2-x-2---x--x---|--2--2-x--2--x--1--0--0--x--|--1--0--0--5---|
E-0----x--0-x-0---x--x---|--0----x--0--x-----------3--|-----------3---|




  E   F# G  C  G  E  F# G   C  G  D  G    E   F# G  C  G  E  F# G   C  G  D  
G

e--------------------------------------|---------------------------------------|
B--------------------------------------|---------------------------------------|
G--------------------------------------|---------------------------------------|
D-2---------5---------------5----------|------------5---------------5----------|
A-2---4--5--3--5--2--4--5---3--5--5--5-|--2---4--5--3--5--2--4--5---5--5--5--5-|
E-0---2--3--3--3--0--2--3---3--3--5--3-|--0---2--3--3--3--0--2--3---3--3--5--3-|




1st Chorus


  E                     D#E               G          F#

    Where do we go from here?

e--------------------------------------------------------|
B--------------------------------------------------------|
G--------------------------------------------------------|
D---------5-----4-------8/9---9--9--9--9--12-----12--11--|
A----5h7-----7-----7----6/7---7--7--7--7--10-----10--9---|
E-0-------------------------------------------0----------|



  E                     D#E               G          F#

    And should we even care?

e--------------------------------------------------------|
B--------------------------------------------------------|
G--------------------------------------------------------|
D---------5-----4-------8/9---9--9--9--9--12-----12--11--|
A----5h7-----7-----7----6/7---7--7--7--7--10-----10--9---|
E-0-------------------------------------------0----------|



  E                     D#E               G          F#

    The end is fianally here

e--------------------------------------------------------|
B--------------------------------------------------------|
G--------------------------------------------------------|
D---------5-----4-------8/9---9--9--9--9--12-----12--11--|
A----5h7-----7-----7----6/7---7--7--7--7--10-----10--9---|
E-0-------------------------------------------0----------|



  E                   F#G       C  B     Bb

     God  have  Mer - cy!

                                         Pm-----

e--------------------------------------------------------|
B--------------------------------------------------------|
G--------------------------------------------------------|
D---------5-----4------------------------------8--10-----|
A----5h7-----7-----7--4/5-------10\9--------8------------|
E-0-------------------2/3----0--8-\7--0--6---------------|





Part after the Chorus



  E                                          D        C     A     D        G 
  F#

        Now we've   re-  written   history

e------------------------------------------|------------------------------------|
B------------------------------------------|------------------------------------|
G------------------------------------------|------------------------------------|
D-------------5-----------5--4--------5--4-|----4--------2-----------2----------|
A-------7-----------7-----------6----------|-5-----5--3--------4--5-----5--5--4-|
E-0--0-----0-----0-----0-----------7-------|----------------5--------------3--2-|



  E                                          D        C     A     D        G 
  F#

        The   one  thing we found  out

e------------------------------------------|------------------------------------|
B------------------------------------------|------------------------------------|
G------------------------------------------|------------------------------------|
D-------------5-----------5--4--------5--4-|----4--------2-----------2----------|
A-------7-----------7-----------6----------|-5-----5--3--------4--5-----5--5--4-|
E-0--0-----0-----0-----0-----------7-------|----------------5--------------3--2-|



  E                                          D        C     A     D        G 
  F#

        Sweet tast  of    vindication

e------------------------------------------|------------------------------------|
B------------------------------------------|------------------------------------|
G------------------------------------------|------------------------------------|
D-------------5-----------5--4--------5--4-|----4--------2-----------2----------|
A-------7-----------7-----------6----------|-5-----5--3--------4--5-----5--5--4-|
E-0--0-----0-----0-----0-----------7-------|----------------5--------------3--2-|



  E                                          D        C     A     D        G 
  F#

    Oo, it    turns to   ashes in your mouth

e------------------------------------------|------------------------------------|
B------------------------------------------|------------------------------------|
G------------------------------------------|------------------------------------|
D-------------5-----------5--4--------5--4-|----4--------2-----------2----------|
A-------7-----------7-----------6----------|-5-----5--3--------4--5-----5--5--4-|
E-0--0-----0-----0-----0-----------7-------|----------------5--------------3--2-|





2nd Chorus




  E                     D#E               G          F#

    Where do we go from here?

e--------------------------------------------------------|
B--------------------------------------------------------|
G--------------------------------------------------------|
D---------5-----4-------8/9---9--9--9--9--12-----12--11--|
A----5h7-----7-----7----6/7---7--7--7--7--10-----10--9---|
E-0-------------------------------------------0----------|



  E                     D#E               G          F#

    And should we even care?

e--------------------------------------------------------|
B--------------------------------------------------------|
G--------------------------------------------------------|
D---------5-----4-------8/9---9--9--9--9--12-----12--11--|
A----5h7-----7-----7----6/7---7--7--7--7--10-----10--9---|
E-0-------------------------------------------0----------|



  E                     D#E               G          F#

    The end is fianally here

e--------------------------------------------------------|
B--------------------------------------------------------|
G--------------------------------------------------------|
D---------5-----4-------8/9---9--9--9--9--12-----12--11--|
A----5h7-----7-----7----6/7---7--7--7--7--10-----10--9---|
E-0-------------------------------------------0----------|



  E                   F#G       C  B     Bb

     God  have  Mer - cy!

                                         Pm-----

e--------------------------------------------------------|
B--------------------------------------------------------|
G--------------------------------------------------------|
D---------5-----4------------------------------8--10-----|
A----5h7-----7-----7--4/5-------10\9--------8------------|
E-0-------------------2/3----0--8-\7--0--6---------------|





Bridge




  E                                                          F

                          If you're fighting  to    live

e--------------------------------------------------------------|
B--------------------------------------------------------------|
G--------------------------------------------------------------|
D--------------------------------------------------------------|
A------------------------------------------------------------3-|
E-0--0-0-0-0--0-0--0-0-0-0--0--0--0--0-0-0----0-0---0-0-0-0--1-|



  E                                                          Bb

                            it's  O.K.      to   die

e--------------------------------------------------------------|
B--------------------------------------------------------------|
G--------------------------------------------------------------|
D------------------------------------------------------------3-|
A------------------------------------------------------------1-|
E-0--0-0-0-0--0-0--0-0-0-0--0--0--0--0-0-0----0-0---0-0-0-0----|



  E                           B   E                        C

                 The answer           to your question is,

e-------------------------------------------------------------|
B-------------------------------------------------------------|
G-------------------------------------------------------------|
D-----------------------------4-----------------------------5-|
A-----------------------------2-----------------------------3-|
E-0---0-0-0-0---0-0--0-0-0-0------0-0-0-0-0---0-0--0-0-0-0----|



  E                                  B

                       Welcome            to tomorrow!

e-----------------------------------------------------|
B-----------------------------------------------------|
G-----------------------------------------------------|
D------------------------------------4----------------|
A------------------------------------2----------------|
E-0--0-0-0-0---0-0----0-0-0-0-0-0-0-------------------|





1st Solo


  E                                                      B  C  B   G

     Pm------------------------------------------------

Gtr 1(Dave)
E---------------------------------------------------|------------------|
B---------------------------------------------------|------------------|
G---------------------------------------------------|------------------|
D---------------------------------------------------|----4--5--4-------|
A---------------------------------------------------|----2--3--2---5---|
E-0--0-0---0-0-0-0---0-0-0----0--0--0--0------------|-0------------3---|
                                                                       |
                                                                       |
Gtr 2(Marty)           Hold Bend                                      |
E---------------------------------------------------|------------------|
B-----8-----8-----8--8-----8--8---8--8--8---8-------|------------------|
G-10b---10b----10b---10-10b---10b-10-10-10--10br-10-|-9~~~--9--11--12--|
D---------------------------------------------------|------------------|
A---------------------------------------------------|------------------|
E---------------------------------------------------|------------------|



  F#

  Pm----------------------------

e---------------------------------|------------------------------------------------|
B---------------------------------|------------------------------------------------|
G---------------------------------|------------------------------------------------|
D---------------------------------|------------------------------------------------|
A-4-------------------------------|-------------1--2--3--3--4--3--2--1-------------|
E-2--2-2-2-2-2-2-2-2-2-2-2-2-2-2--|-2--3--4--5--------------------------5--5--3--3-|
                                                                             
       |
                                                                             
       |
                                                                             
       |
e---------------------------10h12-|-12----------10----------8----------------------|
B---------------------------10h12-|-12\10----10-10-10p8p7h8-8--8--7-----8p7--------|
G-11~~~-----x\----x\--------------|----------------------------------9--------9--8-|
D-----------x\----x\----12--------|------------------------------------------------|
A---------------------------------|------------------------------------------------|
E---------------------------------|------------------------------------------------|




  E                                           B  C      B          G

     Pm------------------------------

e-------------------------------------|-------------------------------|
B-------------------------------------|-------------------------------|
G-------------------------------------|-------------------------------|
D-------------------------------------|-------4--5------4-------------|
A-------------------------------------|-------2--3------2----------5--|
E-0--0-0---0-0-0-0---0-0-0----0-0-0-0-|-0--------------------------3--|
                                                                      |
                                                                      |
                                                                      |
e-----------------------------0-0-0-0-|-------------------------------|
B-10pb----------(10)---5~~~~--5-5-5-5-|-15b------------------------17-|
G-------------------------------------|------------12~~~----16/18-----|
D-------------------------------------|-------------------------------|
A-------------------------------------|-------------------------------|
E-------------------------------------|-------------------------------|




  F#                                                        B

        Pm-----------------------------------------------

e---------------------------------------------------------|-----------------|
B---------------------------------------------------------|-----------------|
G---------------------------------------------------------|-----------------|
D---------------------------------------------------------|-4---------------|
A-4-------------------------------------------------------|-2---------------|
E-2------2--2--2---2------2-2-2-2-2-2-2-2--2--------2--2--|-----------------|
                                                                            
|
                                                                            
|
                                                                            
|
e-15--------18p15-----------------18----15-21p15----15----|-----------------|
B--------17-------17-----------------17----------------15-|-----20----(20)\-|
G-----18-------------18-15-12/15-----------------18-------|-19b-------(19)\-|
D---------------------------------------------------------|-----------------|
A---------------------------------------------------------|-----------------|
E---------------------------------------------------------|-----------------|




  E                                                          F

e--------------------------------------------------------------|
B--------------------------------------------------------------|
G--------------------------------------------------------------|
D--------------------------------------------------------------|
A------------------------------------------------------------3-|
E-0--0-0-0-0--0-0--0-0-0-0--0--0--0--0-0-0----0-0---0-0-0-0--1-|




  E                                                          Bb

e--------------------------------------------------------------|
B--------------------------------------------------------------|
G--------------------------------------------------------------|
D------------------------------------------------------------3-|
A------------------------------------------------------------1-|
E-0--0-0-0-0--0-0--0-0-0-0--0--0--0--0-0-0----0-0---0-0-0-0----|




2nd Solo



  E                                         B       C     B         G

     Pm------------------------------
Gtr 1(Dave)
E-------------------------------------|-----------------------------------|
B-------------------------------------|-----------------------------------|
G-------------------------------------|-----------------------------------|
D-------------------------------------|-----4-------5-----4---------------|
A-------------------------------------|-----2-------3-----2---------5-----|
E-0--0-0---0-0-0-0---0-0-0----0-0-0-0-|-0---------------------------3-----|
                                                                          |
                                                                          |
Gtr 2(Marty)                                                             |
e-------------------------------------|--------------------10/12----------|
B-------------------------------------|--------------------------15-13-12-|
G--------------------------5p0-0-0----|-4-4-4-4-7-4-4-4-0-----------------|
D-2-2-2-2-5-2-2-2-5-5-5-5-------------|-----------------------------------|
A-------------------------------------|-----------------------------------|
E-------------------------------------|-----------------------------------|




F#

  Pm----------------------------

e---------------------------------|------------------------------------------------|
B---------------------------------|------------------------------------------------|
G---------------------------------|------------------------------------------------|
D---------------------------------|------------------------------------------------|
A-4-------------------------------|-------------1--2--3--3--4--3--2--1-------------|
E-2--2-2-2-2-2-2-2-2-2-2-2-2-2-2--|-2--3--4--5--------------------------5--5--3--3-|
                                                                             
       |
                                                                             
       |
                                                                             
       |
e---------------------------------|------------------------------------------------|
B------------12b----------12------|----------------------------------12------------|
G-15~~~~~~--------------------15--|-14~~~~------12----14brb------------------14-14-|
D---------------------------------|------------------------------------------------|
A---------------------------------|------------------------------------------------|
E---------------------------------|------------------------------------------------|




  E

     Pm------------------------------

e-------------------------------------------------|
B-------------------------------------------------|
G-------------------------------------------------|
D-------------------------------------------------|
A-------------------------------------------------|
E-0--0-0---0-0-0-0---0-0-0----0-0-0-0-------------|
                                                  |
                                                  |
                                                  |
e-------------------------------------------------|
B----------------13-------------------------------|
G-16-14-12----------16-14-16-14-12-------16-14-12-|
D----------16-14-------------------16-14----------|
A-------------------------------------------------|
E-------------------------------------------------|




        B           C            B          G

Pm

e-------------------------------------------------|
B-------------------------------------------------|
G-------------------------------------------------|
D-------4-----------5------------4----------------|
A-------2-----------3------------2----------5-----|
E-0-----------------------------------------3-----|
                                                  |
                                                  |
                                                  |
e-------------------------------------------------|
B-------------------------------------------------|
G-------------13----13-16----12-15----12-15-14-12-|
D-16-14-13-14----14-------14-------14-------------|
A-------------------------------------------------|
E-------------------------------------------------|






  F#

        Pm-----------------------------------------------

e-------------------------------------------------------------|
B-------------------------------------------------------------|
G-------------------------------------------------------------|
D-------------------------------------------------------------|
A-4-----------------------------------------------------------|
E-2------2--2--2---2------2-2-2-2-2-2-2-2--2--------2--2------|
                                                              |
                                                              |
                                                              |
e----------------------14/18----------------------------------|
B-------11-12-14p12p11----------------------19p17p15----------|
G-11-12----------------------15-16-18p16p15----------18p16p15-|
D-------------------------------------------------------------|
A-------------------------------------------------------------|
E-------------------------------------------------------------|





  B

e--------------------------------------------------|
B--------------------------------------------------|
G--------------------------------------------------|
D-4------------------------------------------------|
A-2------------------------------------------------|
E--------------------------------------------------|
                                                   |
                                                   |
                                                   |
e--------12----------------------------------------|
B-----12----15p12----------------------------------|
G-14b-------------14pbr12--------------------------|
D-------------------------14-13-12-----------------|
A----------------------------------14-13-12--------|
E-------------------------------------------15-12\-|




3rd Solo


  E

Gtr 1(Dave)
e-12h15p12----12-12h15p12----12-12h15p12----12-12h15p12----12-|
B----------15-------------15-------------15-------------15----|
G-------------------------------------------------------------|
D-------------------------------------------------------------|
A-------------------------------------------------------------|
E-------------------------------------------------------------|
                                                              |
  Pm------------------------------                            |
Gtr 2(Marty)                                                 |
e-------------------------------------------------------------|
B-------------------------------------------------------------|
G-------------------------------------------------------------|
D-------------------------------------------------------------|
A-------------------------------------------------------------|
E-0--0-0---0-0-0-0---0-0-0----0-0-0-0-------------------------|




           B              C              B              G

e-12h17p12----12-12h17p12----12-12h17p12----12-12h17p12-------|
B----------15-------------15-------------15-------------15/17-|
G-------------------------------------------------------------|
D-------------------------------------------------------------|
A-------------------------------------------------------------|
E-------------------------------------------------------------|
                                                              |
  Pm                                                          |
                                                              |
e-------------------------------------------------------------|
B-------------------------------------------------------------|
G-------------------------------------------------------------|
D----------4--------------5--------------4--------------------|
A----------2--------------3--------------2--------------5-----|
E-0-----------------------------------------------------3-----|




  F#

e-14h17p14----14-14h17p14----14-14h17p14----14-14h17p14----14-14-|
B----------16-------------16-------------16-------------16-------|
G----------------------------------------------------------------|
D----------------------------------------------------------------|
A----------------------------------------------------------------|
E----------------------------------------------------------------|
                                                                 |
        Pm-----------------------------------------------        |
                                                                 |
e----------------------------------------------------------------|
B----------------------------------------------------------------|
G----------------------------------------------------------------|
D----------------------------------------------------------------|
A-4--------------------------------------------------------------|
E-2------2--2--2---2------2-2-2-2-2-2-2-2--2--------2--2---------|

e-14h19p14----14-14h19p14----14-14h19p14----14-14h19p14----14-|
B----------16-------------16-------------16-------------16----|
G-------------------------------------------------------------|
D-------------------------------------------------------------|
A-------------------------------------------------------------|
E-------------------------------------------------------------|
                                                              |
                                                              |
                                                              |
e-------------------------------------------------------------|
B-------------------------------------------------------------|
G-------------------------------------------------------------|
D-------------------------------------------------------------|
A-------------1--2--3--3--4--3--2--1--------------------------|
E-2--3--4--5--------------------------5--5--3--3--------------|




  E


e-12h15p12----12-12h15p12----12-12h15p12----12-12h15p12----12-|
B----------15-------------15-------------15-------------15----|
G-------------------------------------------------------------|
D-------------------------------------------------------------|
A-------------------------------------------------------------|
E-------------------------------------------------------------|
                                                              |
  Pm---------------------------------                         |
                                                              |
e-------------------------------------------------------------|
B-------------------------------------------------------------|
G-------------------------------------------------------------|
D-------------------------------------------------------------|
A-------------------------------------------------------------|
E-0--0-0---0-0-0-0---0-0-0----0-0-0-0-------------------------|




           B              C              B              G

e-12h17p12----12-12h17p12----12-12h17p12----12-12h17p12-------|
B----------15-------------15-------------15-------------15/17-|
G-------------------------------------------------------------|
D-------------------------------------------------------------|
A-------------------------------------------------------------|
E-------------------------------------------------------------|
                                                              |
  Pm                                                          |
                                                              |
e-------------------------------------------------------------|
B-------------------------------------------------------------|
G-------------------------------------------------------------|
D----------4--------------5--------------4--------------------|
A----------2--------------3--------------2--------------5-----|
E-0-----------------------------------------------------3-----|



  F#

e-14h17p14----14-14h17p14----14-14h17p14----14-14h17p14----14-14-|
B----------16-------------16-------------16-------------16-------|
G----------------------------------------------------------------|
D----------------------------------------------------------------|
A----------------------------------------------------------------|
E----------------------------------------------------------------|
                                                                 |
        Pm-----------------------------------------------        |
                                                                 |
e----------------------------------------------------------------|
B----------------------------------------------------------------|
G----------------------------------------------------------------|
D----------------------------------------------------------------|
A-4--------------------------------------------------------------|
E-2------2--2--2---2------2-2-2-2-2-2-2-2--2--------2--2---------|




  B

e-17-19-19-19-19-19-19-19-19-19-19-19-19-19-19-19-19-19-19-19-19-19-19-19-|-19--|
B-------------------------------------------------------------------------|-----|
G-------------------------------------------------------------------------|-----|
D-------------------------------------------------------------------------|-----|
A-------------------------------------------------------------------------|-----|
E-------------------------------------------------------------------------|-----|
                                                                             
    |
                                                                             
    |
                                                                             
    |
e-------------------------------------------------------------------------|-----|
B-------------------------------------------------------------------------|-----|
G-------------------------------------------------------------------------|-4---|
D-4-----------------------------------------------------------------------|-4---|
A-2-----------------------------------------------------------------------|-2---|
E-------------------------------------------------------------------------|-----|





Harmony Guitar Line




Gtr 1
e-19--22--19--17------------------------------|
B-----------------19--------------------------|
G---------------------19----------------------|
D-------------------------17----------16--17--|
A---------------------------------------------|
E---------------------------------------------|
                                              |
                                              |
Gtr 2                                        |
e-15--19--15--14------------------------------|
B-----------------15--------------------------|
G---------------------14----------------------|
D-------------------------14----------12--14--|
A---------------------------------------------|
E---------------------------------------------|

e-19--22--19--17-------------|----------------------------------------------------|
B-----------------19---------|----------------------15-17p15-17p15----------------|
G---------------------19-----|----------16-17p16h17----------------17p16-17p16----|
D-------------------------17-|-17p16h17----------------------------------------17-|
A----------------------------|----------------------------------------------------|
E----------------------------|----------------------------------------------------|
                                                                             
      |
                                                                             
      |
                                                                             
      |
e-15--19--15--14-------------|----------------------------------------------------|
B-----------------15---------|----------------------12-13p12-13p12----------------|
G---------------------14-----|----------12-14p12h14----------------14p12-14p12----|
D-------------------------14-|-14p12h14----------------------------------------14-|
A----------------------------|----------------------------------------------------|
E----------------------------|----------------------------------------------------|

e-19--22--19--17------------------------------------------17--19--20-|
B-----------------19--------------------------17--19--20-------------|
G---------------------19---------------------------------------------|
D-------------------------17----------16--17-------------------------|
A--------------------------------------------------------------------|
E--------------------------------------------------------------------|
                                                                     |
                                                                     |
                                                                     |
e-15--19--15--14----------------------------------------------15--17-|
B-----------------15------------------------------15--17--19---------|
G---------------------14----------------------17---------------------|
D-------------------------14--------------14-------------------------|
A-------------------------------------17-----------------------------|
E--------------------------------------------------------------------|

e-19--22--19--17------------------------------20--19--17-------------|
B-----------------19--------------------------------------20--19--17-|
G---------------------19---------------------------------------------|
D-------------------------17----------16--17-------------------------|
A--------------------------------------------------------------------|
E--------------------------------------------------------------------|
                                                                     |
                                                                     |
                                                                     |
e-15--19--15--14------------------------------17--15--14-------------|
B-----------------15--------------------------------------17--15-----|
G---------------------14------------------------------------------17-|
D-------------------------14--------------14-------------------------|
A-------------------------------------17-----------------------------|
E--------------------------------------------------------------------|

e-19--22--19--17------------19--22--19--17---------|
B-----------------19------------------------19-----|
G---------------------19------------------------19-|
D--------------------------------------------------|
A--------------------------------------------------|
E--------------------------------------------------|
                                                   |
                                                   |
                                                   |
e-15--19--15--14------------15--19--15--14---------|
B-----------------15------------------------15-----|
G---------------------14------------------------14-|
D--------------------------------------------------|
A--------------------------------------------------|
E--------------------------------------------------|

e-15p12h15p12-16p13h16p13-17p14h17p14-18p15h18p15-|
B-------------------------------------------------|
G-------------------------------------------------|
D-------------------------------------------------|
A-------------------------------------------------|
E-------------------------------------------------|
                                                  |
                                                  |
                                                  |
e-10p7h10p7---11p8h11p8---12p9h12p12--13p10h13p10-|
B-------------------------------------------------|
G-------------------------------------------------|
D-------------------------------------------------|
A-------------------------------------------------|
E-------------------------------------------------|

e-19p16h19p16-20p17h20p17-21p18h21p18-22p19h22p19-|
B-------------------------------------------------|
G-------------------------------------------------|
D-------------------------------------------------|
A-------------------------------------------------|
E-------------------------------------------------|
                                                  |
                                                  |
                                                  |
e-14p11h14p11-15p12h15p12-16p13h16p13-17p14h17p14-|
B-------------------------------------------------|
G-------------------------------------------------|
D-------------------------------------------------|
A-------------------------------------------------|
E-------------------------------------------------|

(play this two times)
e---------------------------------------|----------------------------------------|
B*--------------------------------------|---------------------------------------*|
G---------------------------------------|----------------------------------------|
D--2---------5---------------5----------|------------5---------------5-----------|
A*-2---4--5--3--5--2--4--5---3--5--5--5-|--2---4--5--3--5--2--4--5---5--5--5--5-*|
E--0---2--3--3--3--0--2--3---3--3--5--3-|--0---2--3--3--3--0--2--3---3--3--5--3--|





Then Play This




  E                     D#E               G          F#

    Where do we go from here? Ow!

                             Pick
                             Slide
e--------------------------------------------------------|
B--------------------------------------------------------|
G-----------------------------x\-------------------------|
D---------5-----4-------8/9---x\----------12-----12--11--|
A----5h7-----7-----7----6/7---------------10-----10--9---|
E-0---------------------------------0--------------------|



  E                     D#E               G          F#


e--------------------------------------------------------|
B--------------------------------------------------------|
G--------------------------------------------------------|
D---------5-----4-------8/9---9--9--9--9--12-----12--11--|
A----5h7-----7-----7----6/7---7--7--7--7--10-----10--9---|
E-0-------------------------------------------0----------|



  E                     D#E               G          F#


e--------------------------------------------------------|
B--------------------------------------------------------|
G--------------------------------------------------------|
D---------5-----4-------8/9---9--9--9--9--12-----12--11--|
A----5h7-----7-----7----6/7---7--7--7--7--10-----10--9---|
E-0-------------------------------------------0----------|



  E                   F#G       C  B     Bb

     God  have  Mer - cy!

                                         Pm-----

e--------------------------------------------------------|
B--------------------------------------------------------|
G--------------------------------------------------------|
D---------5-----4------------------------------8--10-----|
A----5h7-----7-----7--4/5-------10\9--------8------------|
E-0-------------------2/3----0--8-\7--0--6---------------|



  E                                          D        C     A     D        G 
  F#

(Play Two Times)
e------------------------------------------|------------------------------------|
B*-----------------------------------------|-----------------------------------*|
G------------------------------------------|------------------------------------|
D-------------5-----------5--4--------5--4-|----4--------2-----------2----------|
A*------7-----------7-----------6----------|-5-----5--3--------4--5-----5--5--4*|
E-0--0-----0-----0-----0-----------7-------|----------------5--------------3--2-|




  E                                          D        C     A     D        G 
  F#

  Gtr 1
e------------------------------------------|------------------------------------|
B------------------------------------------|------------------------------------|
G------------------------------------------|------------------------------------|
D-------------5-----------5--4--------5--4-|----4--------2-----------2----------|
A-------7-----------7-----------6----------|-5-----5--3--------4--5-----5--5--4-|
E-0--0-----0-----0-----0-----------7-------|----------------5--------------3--2-|
                                                                             
    |
                                                                             
    |
  Gtr 2                                                                      
    |
e------------------------------------------|------------------------------------|
B------------------------------------------|------------------------------------|
G-------------------------4--3--------4--3-|------------------------------------|
D-------------5-----------------5----------|----4--------2-----------2----------|
A-------7-----------7--------------7-------|-5-----5--3--------4--5-----5--5--4-|
E-0--0-----0-----0-----0-------------------|----------------5--------------3--2-|




  E                                          D        C     A     D        G 
  F#


e------------------------------------------|------------------------------------|
B------------------------------------------|------------------------------------|
G------------------------------------------|------------------------------------|
D-------------5-----------5--4--------5--4-|----4--------2-----------2----------|
A-------7-----------7-----------6----------|-5-----5--3--------4--5-----5--5--4-|
E-0--0-----0-----0-----0-----------7-------|----------------5--------------3--2-|
                                                                             
    |
                                                                             
    |
                                                                             
    |
e------------------------------------------|------------------------------------|
B------------------------------------------|------------------------------------|
G-------------4----------------------------|------------------------------------|
D-------5-----------5-----5--4--------5--4-|----4--------2-----------2----------|
A-------------------------------6----------|-5-----5--3--------4--5-----5--5--4-|
E-0--0-----0-----0-----0-----------7-------|----------------5--------------3--2-|




3rd Chorus



  E                     D#E               G          F#

    Where do we go from here?

e--------------------------------------------------------|
B--------------------------------------------------------|
G--------------------------------------------------------|
D---------5-----4-------8/9---9--9--9--9--12-----12--11--|
A----5h7-----7-----7----6/7---7--7--7--7--10-----10--9---|
E-0-------------------------------------------0----------|



  E                     D#E               G          F#

    And should we even care?

e--------------------------------------------------------|
B--------------------------------------------------------|
G--------------------------------------------------------|
D---------5-----4-------8/9---9--9--9--9--12-----12--11--|
A----5h7-----7-----7----6/7---7--7--7--7--10-----10--9---|
E-0-------------------------------------------0----------|



  E                     D#E               G          F#

    The end is finally here

e--------------------------------------------------------|
B--------------------------------------------------------|
G--------------------------------------------------------|
D---------5-----4-------8/9---9--9--9--9--12-----12--11--|
A----5h7-----7-----7----6/7---7--7--7--7--10-----10--9---|
E-0-------------------------------------------0----------|



  E                   F#G       C  B     Bb

     God  have  Mer - cy!

                                         Pm-----

e--------------------------------------------------------|
B--------------------------------------------------------|
G--------------------------------------------------------|
D---------5-----4------------------------------8--10-----|
A----5h7-----7-----7--4/5-------10\9--------8------------|
E-0-------------------2/3----0--8-\7--0--6---------------|





4th Chorus



  E                     D#E               G          F#

    Where do we go from here?

e--------------------------------------------------------|
B--------------------------------------------------------|
G--------------------------------------------------------|
D---------5-----4-------8/9---9--9--9--9--12-----12--11--|
A----5h7-----7-----7----6/7---7--7--7--7--10-----10--9---|
E-0-------------------------------------------0----------|



  E                     D#E               G          F#

    And should we even care?

e--------------------------------------------------------|
B--------------------------------------------------------|
G--------------------------------------------------------|
D---------5-----4-------8/9---9--9--9--9--12-----12--11--|
A----5h7-----7-----7----6/7---7--7--7--7--10-----10--9---|
E-0-------------------------------------------0----------|



  E                     D#E               G          F#

    The end is finally here

e--------------------------------------------------------|
B--------------------------------------------------------|
G--------------------------------------------------------|
D---------5-----4-------8/9---9--9--9--9--12-----12--11--|
A----5h7-----7-----7----6/7---7--7--7--7--10-----10--9---|
E-0-------------------------------------------0----------|



  E                   F#G       C  B     Bb

     God  have  Mer - cy!

                                         Pm-----

e--------------------------------------------------------|
B--------------------------------------------------------|
G--------------------------------------------------------|
D---------5-----4------------------------------8--10-----|
A----5h7-----7-----7--4/5-------10\9--------8------------|
E-0-------------------2/3----0--8-\7--0--6---------------|




   Bb

   Pm------------------------------------------------

e-----------------------------------------------------|
B-----------------------------------------------------|
G-----------------------------------------------------|
D--------8--10--------8--10--------8--10--------8--10-|
A-----8------------8------------8------------8--------|
E--6------------6------------6------------6-----------|




   Bb

   Pm------------------------------------------------

e-----------------------------------------------------|
B-----------------------------------------------------|
G-----------------------------------------------------|
D--------8--10--------8--10--------8--10--------8--10-|
A-----8------------8------------8------------8--------|
E--6------------6------------6------------6-----------|




  E                                             E

     Mercy!               Mercy!

e--------------------------------|------------|-----------------------------|
B--------------------------------|------------|-----------------------------|
G--------------------------------|-Drum 
Solo--|-----------------------------|
D-2------------------------------|------------|-2--Last Chord Keeps 
Echoing-|
A-2------------------------------|------------|-2---------------------------|
E-0------------------------------|------------|-0---------------------------|
Outros vídeos desta música
    5.943 exibições
      • ½ Tom
      • A
      • Bb
      • B
      • C
      • Db
      • D
      • Eb
      • E
      • F
      • F#
      • G
      • Ab
    • Adicionar à lista

    Afinação da cifra

    Afinador online

      0 comentários

      Ver todos os comentários

      Entre para o Cifra Club PRO

      Tenha acesso a benefícios exclusivos no App e no Site

      • Chega de anúncios

      • Badges exclusivas

      • Mais recursos no app do Afinador

      • Atendimento Prioritário

      • Aumente seu limite de lista

      • Ajude a produzir mais conteúdo

      Cifra Club Pro

      Aproveite o Cifra Club com benefícios exclusivos e sem anúncios
      Cifra Club Pro
      Aproveite o Cifra Club com benefícios exclusivos e sem anúncios
      OK