Cifra Club

Chosen Ones

Megadeth

Cifra: Principal (violão e guitarra)
tom: A
E|---------------------------------|
B|---------------------------------|
G|-5---------------5---------------|
D|-------7---5-----------7---5-----|
A|---0-0---0---6-7---0-0---0---6-7-|
E|---------------------------------|
     * *   *         * *   *
E|---------------------------------|
B|---------------------------------|
G|-5---------------7-6-5-----------|
D|-------7---5-----------7-6-5-----|
A|---0-0---0---6-7-------------7-0-|
E|---------------------------------|
     * *   *

Riff 2
E|--------------------------------------------|
B|--------------------------------------------|
G|------------5---------------5---------------|
D|-9----7-----------7---5-----------7---5-----|
A|-7----5--8----0-0---0---6-7---0-0---0---6-7-|
E|---------6----------------------------------|
                * *   *         * *   *
    An animal so vicious... 
E|--------------------------------------------|
B|--------------------------------------------|
G|------------5---------------7-6-5-----------|
D|-9----7-10--------7---5-----------7-6-5-----|
A|-7----5--8----0-0---0---6-7-------------7-0-|
E|--------------------------------------------|
                 * *   *
    So on the fields... 




Play Riff 1    Human bones... 
Play Riff 2    When I walk... 

Ending chord for Riff 2 above:
E|-----|
B|-----|
G|-----|
D|-----|
A|--7--|
E|--5--|



Riff 3
Guitar 1
E|-----------------------------|
B|-----------------------------|
G|---------------------2-0-----|
D|-2----5----4----3--------1-0-|
A|-0----3----2----1------------|
E|-----------------------------|

Guitar 2
E|-------------------------------------------|
B|-------------------------------------------|
G|---0h2-5p4p2p0----------0h2-5p4p2p0--------|
D|-2-----a------5p4p2p0-5-----a------5p4p2p0-|
A|-0------------a-------3------------a-------|
E|-------------------------------------------|

E|--------------------------------------------|
B|--------------------------------------------|
G|---0h2-5p4p2p0----------0h2-5p4p2p0-5p4p2p0-|
D|-4-----a------5p4p2p0-3-----a-------a-------|
A|-2------------a-------1---------------------|
E|--------------------------------------------|



Riff 3a
Guitar 1
E|----------------------------|
B|----------------------------|
G|----------------------------|
D|-2-----2--2-5--2-----2--2-4-|
A|-0-000-0--0-3--0-000-0--0-2-|
E|----------------------------|
     ***           ***
   Heaven's powers... 
E|-------------------------------|
B|-------------------------------|
G|-----------------------2-0-----|
D|-2-----2--2-3--2-----2-----1-0-|
A|-0-000-0--0-1--0-000-0---------|
E|-------------------------------|
     ***           ***
   Onward now... 

Guitar 2
E|-------------------------------------------|
B|-------------------------------------------|
G|---0h2-5p4p2p0----------0h2-5p4p2p0--------|
D|-2-----a------5p4p2p0-5-----a------5p4p2p0-|
A|-0------------a-------3------------a-------|
E|-------------------------------------------|

E|--------------------------------------------|
B|--------------------------------------------|
G|---0h2-5p4p2p0----------0h2-5p4p2p0-5p4p2p0-|
D|-4-----a------5p4p2p0-3-----a-------a-------|
A|-2------------a-------1---------------------|
E|--------------------------------------------|

Riff 4 (Solo Rhythm)
E|---------------------------------------------|
B|---------------------------------------------|
G|---------------------------------------------|
D|---------------------------------------------|
A|-2222-00-22-3333-55-33-2222-00-22-3333-55-33-|
E|---------------------------------------------|
   **** ** ** **** ** ** **** ** ** **** ** **
E|---------------------------------|
B|---------------------------------|
G|---------------------------------|
D|--------------------------4--4-4-|
A|-2222-00-22-3333-55-33-00-2--2-2-|
E|---------------------------------|
   **** ** ** **** ** ** **

Riff 4a (Solo Rhythm)   x6
E|-----------------------|
B|-----------------------|
G|-----------------------|
D|-----------------------|
A|-5555-33-55-6666-88-66-|
E|-----------------------|
   **** ** ** **** ** **
E|---------------------------------|
B|---------------------------------|
G|---------------------------------|
D|--------------------------7--7-7-|
A|-5555-33-55-6666-88-66-33-5--5-5-|
E|---------------------------------|
   **** ** ** **** ** ** **


Play Riff 3a   Solo Rhythm

Ending to riff 3a:
Guitar 1
E|--------------------------|
B|--------------------------|
G|--------------------------|
D|-2-----2--2-5--2-----2--2-|
A|-0-000-0--0-3--0-000-0--0-|
E|--------------------------|
     ***           ***
    Never let you... 

Guitar 2
E|-------------------------------------------|
B|-------------------------------------------|
G|---0h2-5p4p2p0----------0h2-5p4p2p0--------|
D|-2-----a------5p4p2p0-5-----a------5p4p2p0-|
A|-0------------a-------3------------a-------|
E|-------------------------------------------|

Solo (Mustaine)
E|-----------------------------------|
B|-9b10--(9)r----------------9--7----|
G|-9b10--(9)r---9p8-9p7-9----9--7tr9-|
D|------------------------9----------|
A|-----------------------------------|
E|-----------------------------------|

E|---------------------------7----------------------------------|
B|--------------7h8-10-10-10---10-7-10-7------------------------|
G|---------7-10--------------------------9b11-9-7---7-----------|
D|-7h8-9-9----------------------------------------9---9-7---7-9-|
A|--------------------------------------------------------9-----|
E|--------------------------------------------------------------|

E|-------------------------------------------------------|
B|-------------------------------------------------------|
G|----------9---8--------------------12---11-------------|
D|-7---10-----------7--------10h13------------------12---|
A|----------------------10---------------------13--------|
E|-------------------------------------------------------|

E|---------------------------------------15---14---15---17----|
B|---------14---13-------------13---17------------------------|
G|-11h14------------------11----------------------------------|
D|-------------------14---------------------------------------|
A|------------------------------------------------------------|
E|------------------------------------------------------------|

E|-20p19-17p15---------14h15-17-20p19-17----------------|
B|-------------15b16---------------------20p19-17-------|
G|------------------------------------------------19b20-|
D|------------------------------------------------------|
A|------------------------------------------------------|
E|------------------------------------------------------|

E|----14h15-17-15---14-15-17p15-14-15---14--------------|
B|-16--------------------------------------17-15-14-----|
G|--------------------------------------------------16--|
D|------------------------------------------------------|
A|------------------------------------------------------|
E|------------------------------------------------------|

E|--------------------------------------|
B|-22b24-----------22b24-------22b24p19-|
G|--------------------------------------|
D|--------------------------------------|
A|--------------------------------------|
E|--------------------------------------|

E|-24b26-----------24b26-----------22---19---|
B|-------------------------------------------|
G|-------------------------------------------|
D|-------------------------------------------|
A|-------------------------------------------|
E|-------------------------------------------|

E|-22---20---19----------------------------------12---|
B|----------------22---20---19------------------------|
G|-------------------------------21b23----------------|
D|----------------------------------------------------|
A|----------------------------------------------------|
E|----------------------------------------------------|

E|-15p12---------------------------------|
B|---------15p12-------------------------|
G|-----------------14p12-----------------|
D|-------------------------12b13---------|
A|---------------------------------------|
E|---------------------------------------|

E|-------------------------------------------------|
B|-------------------------------------------------|
G|-------------------------------------------------|
D|----------------------------14-15-14-------------|
A|-------------14-15-14-15-17----------17-15-14----|
E|-15-17-15-17----------------------------------17-|

E|-------------------------------------------------|
B|-------------------------------------------------|
G|-------------------14----14-16-17-16-14-16-14----|
D|----------14-16-17----17----------------------17-|
A|----16-17----------------------------------------|
E|-15----------------------------------------------|

E|-------------------------------------------------|
B|-------------14-15-16-17-18-19-19-18-17----------|
G|-14-14-16-17----------------------------19-18-17-|
D|-------------------------------------------------|
A|-------------------------------------------------|
E|-------------------------------------------------|

E|-------------15---17-19-19---20-22-22---20-19-----------|
B|----15-17-19----------------------------------22-20-19--|
G|--------------------------------------------------------|
D|-19-----------------------------------------------------|
A|--------------------------------------------------------|
E|--------------------------------------------------------|

E|-------------------------------------------------|
B|-------------------------------------------------|
G|-------------------------------------------------|
D|-------------------------------------------------|
A|-------------------------------------10-11-12-13-|
E|-10-11-12-13-12-13-14-15-13-14-15-16-------------|

E|-------------------------------------------------|
B|-------------------------------------------------|
G|-------------------------------------------------|
D|-------------------------10-11-12-13-12-13-14-15-|
A|-12-13-14-15-13-14-15-16-------------------------|
E|-------------------------------------------------|

E|-------------------------------------------------|
B|-------------------------------------13h15-13----|
G|-------------10h12-10----10-12-14-15----------15-|
D|-14-15-16-17----------14-------------------------|
A|-------------------------------------------------|
E|-------------------------------------------------|

E|----------13----------------------13-15-13-15-13-|
B|-13-15-16----16-15-13----13-15-16----------------|
G|----------------------15-------------------------|
D|-------------------------------------------------|
A|-------------------------------------------------|
E|-------------------------------------------------|

E|-17---18---17-15-17-15-14-15-14----14----------|
B|--------------------------------17----15-14-15-|
G|-----------------------------------------------|
D|-----------------------------------------------|
A|-----------------------------------------------|
E|-----------------------------------------------|

E|-------------------------------------------------|
B|-14----14----------------------------------------|
G|----16----15-14-15-14----14----------------------|
D|----------------------17----17-14-15-14----14----|
A|----------------------------------------17----15-|
E|-------------------------------------------------|

E|-------------------------------------------------|
B|-------------------------------------------------|
G|-------------------------------------------------|
D|-------------------------------------------------|
A|-------------------------------------------------|
E|-17-17-16-16-15-15-14-14-13-13-12-12-11-11-10-10-|

E|----------------------------------------|
B|----------------------------------------|
G|----------------------------------------|
D|----------------------------------------|
A|----------------------------------------|
E|-9-9-8-8-7---7-6-6---5-5--4---4-3-3-2-2-|

                                   x3
E|-24tm-23tm-24tm-23-24-20-19-17-19-|--------------|
B|----------------------------------|--19tm--21tm--|
G|----------------------------------|--------------|
D|----------------------------------|--------------|
A|----------------------------------|--------------|
E|----------------------------------|--------------|

                                   x3
E|-24tm-23tm-24tm-23-24-20-19-17-19-|--------------|
B|----------------------------------|--19tm--21tm--|
G|----------------------------------|--------------|
D|----------------------------------|--------------|
A|----------------------------------|--------------|
E|----------------------------------|--------------|

                                   x3
E|-24tm-23tm-24tm-23-24-20-19-17-19-|--------------|
B|----------------------------------|--19tm--21tm--|
G|----------------------------------|--------------|
D|----------------------------------|--------------|
A|----------------------------------|--------------|
E|----------------------------------|--------------|

E|-24tm-23tm-24tm-23-24-20-19-17-19--24tm-23tm-24tm-|
B|--------------------------------------------------|
G|--------------------------------------------------|
D|--------------------------------------------------|
A|--------------------------------------------------|
E|--------------------------------------------------|

End Solo



Riff 5
E|-----0--0-------0--0----|
B|-----------0----------0-|
G|------------------------|
D|-10----------9----------|
A|--8----------7----------|
E|------------------------|
      I reign... 
E|----0--0--------0--0----|
B|----------0-----------0-|
G|------------------------|
D|-8-----------5----------|
A|-6-----------3----------|
E|------------------------|
      ...now I say... 



Riff 6
E|----------------------------------------------|
B|----------------------------------------------|
G|------4-3-2----------5-4-3----------6-5-4-----|
D|------------4-3------------5-4------------6-5-|
A|-2--2-----------3--3-----------4--4-----------|
E|----------------------------------------------|

E|--------------------------------------------------------|
B|-----------------------------------------------8--8--8~-|
G|------7-6-5----------8-7-6----------9-8-7------7--7--7~-|
D|------------7-6------------8-7------------9-8-----------|
A|-5--5-----------6--6-----------7--7---------------------|
E|--------------------------------------------------------|
                                            I say to kill! 


Play Riff 2    You doubt your... 
Play Riff 2    An animal so... 

Ending:
E|--------------------------------|
B|--------------------------------|
G|--------------------------------|
D|--------------------------------|
A|-7----7------------7--------7\--|
E|-5----5------------5--------5\--|

00:00 / 00:00
Outros vídeos desta música
Repetir
Outros vídeos desta música
Composição de Dave Mustaine
Colaboração e revisão:
  • Gabriella
  • marcos rolim
1.242 exibições
    • ½ Tom
    • A
    • Bb
    • B
    • C
    • Db
    • D
    • Eb
    • E
    • F
    • F#
    • G
    • Ab
  • Adicionar à lista

    0 comentários

    Ver todos os comentários

    Conseguiu tocar?

    0 Tocaram 0 Ainda não

    Grave um vídeo tocando Chosen Ones e nos envie!

    Entre para oCifra Club PRO

    Tenha acesso a benefícios exclusivos no App e no Site

    • Chega de anúncios

    • Prioridade de compra em lançamentos

    • Mais recursos no app do Afinador

    • Atendimento Prioritário

    • Descontos nos produtos Cifra Club

    • Ajude a produzir mais conteúdo

    00:00 / 00:00

    Cifra Club Pro

    Aproveite o Cifra Club com benefícios exclusivos e sem anúncios
    Cifra Club Pro
    Aproveite o Cifra Club com benefícios exclusivos e sem anúncios
    OK