Cifra Club

Aprenda

Conquer Or Die

Megadeth

Cifra: Principal (violão e guitarra)
Tom: E
[Intro]

D|---------------------------------------------------------------------------------------------------|
A|----5-----------------------5------------------------5----------------------5----------------------|
F|----------------0-----------------------0-----------------------0----------------------0-----------|
C|--------2-----------2-----------2-----------2------------2----------2-----------2----------2-------|
G|---------------------------------------------------------------------------------------------------|
D|------------0-----------0-----------0-----------0------------0----------0-----------0----------0---|

D|---------------------------------------------------------------------------------------------------|
A|----5-----------------------5------------------------5----------------------5----------------------|
F|----------------0-----------------------0-----------------------0----------------------0-----------|
C|--------2-----------2-----------2-----------2------------2----------2-----------2----------2-------|
G|---------------------------------------------------------------------------------------------------|
D|------------0-----------0-----------0-----------0------------0----------0-----------0----------0---|

D|---------------------------------------------------------------------------------------------------|
A|----5-----------------------7------------------------8----------------------12---------------------|
F|----------------0-----------------------0-----------------------0----------------------0-----------|
C|--------2-----------0-----------4-----------0------------5----------0-----------9----------0-------|
G|---------------------------------------------------------------------------------------------------|
D|------------0-----------0-----------0-----------0------------0----------0-----------0----------0---|

D|----------------------------------------------------------------------------------------------------|
A|----11----------------------11-----------------------11---------------------11----------------------|
F|-----------------0-----------------------0-----------------------0----------------------0-----------|
C|---------8-----------8-----------8-----------8------------8----------8-----------8----------0-------|
G|----------------------------------------------------------------------------------------------------|
D|-------------0-----------0-----------0-----------0------------0----------0-----------0----------0---|

D|-----------------------------------------------------------------------------------------------------|
A|----5-----------------------7------------------------8----------------------12-----------------------|
F|----------------0-----------------------0-----------------------0------------------------0-----------|
C|--------2-----------0-----------4-----------0------------5----------0------------9-----------0-------|
G|-----------------------------------------------------------------------------------------------------|
D|------------0-----------0-----------0-----------0------------0----------0------------0-----------0---|

D|---------------------------------------------------------------------------------------------------------|
A|----13-------------------------10------------------------5-----------------------5-----------------------|
F|------------------0--------------------------0-----------------------0-----------------------0-----------|
C|---------10-----------10------------10-----------0-----------9-----------9-----------9-----------9-------|
G|---------------------------------------------------------------------------------------------------------|
D|--------------0------------0-------------0-----------0-----------0-----------0-----------0-----------0---|

D|------------------------------------------------------------------------------------------------------|
A|----11-----------------------11-----------------------8-----------------------8-----------------------|
F|-----------------0------------------------0-----------------------0-----------------------0-----------|
C|---------8-----------8------------8-----------0-----------5-----------5-----------5-----------0-------|
G|------------------------------------------------------------------------------------------------------|
D|-------------0-----------0------------0-----------0-----------0-----------0-----------0-----------0---|

D|---------------------------------------------------------------------------------------------------|
A|----4-----------------------4-----------------------4----------------------4-----------------------|
F|----------------0-----------------------0-----------------------2----------------------2-----------|
C|--------1-----------1-----------1-----------0-----------1-----------1----------1-----------1-------|
G|---------------------------------------------------------------------------------------------------|
D|------------0-----------0-----------0-----------0-----------0-----------0----------0-----------0---|

D|----------------------------0-----------------------------------------------------------------------|
A|----4-----------------------------------------------4-----------------------4-----------------------|
F|----------------0-----------------------0-----------------------0-----------------------2-----------|
C|--------1-----------1-----------1-----------0-----------1-----------1-----------1-----------1-------|
G|----------------------------------------------------------------------------------------------------|
D|------------0-----------0-----------0-----------0-----------0-----------0-----------0-----------0---|

D|----------------0-------------------|
A|------------------------------------|
F|----2-----------------------2-------|
C|--------1-----------1-----------1---|
G|------------------------------------|
D|------------0-----------0-----------|

D|------------------0---0---0-----------------|
A|--------------0-----0---0-----0-------------|
F|----------0-----0-----------0-----0---------|
C|------2-----2-------------------2-----2-----|
G|--------2---------------------------2-------|
D|----0-----------------------------------0---|

D|--------------0----------------0--------------7-------6------------6---------------------------------|
A|--------0-----0----------------------------------8----5-------5------------------------------7-------|
F|--------------------11/12--------------9--------------6---6----------------------------5-------------|
C|---------------------------------------------------------------------------------7-------------------|
G|---------------------------------------------------------------------------6-------------------------|
D|----0-------------------0-----------------------------0----------------------------------------------|

D|--------------0----------------0--------------7-------6------------6--------------------------12------|
A|--------0----------------------------------------8----5-------5------------------------10-------------|
F|--------------------11/12--------------9--------------6---6----------------------9--------------------|
C|--------------------------------------------------------------------------10--------------------------|
G|------------------------------------------------------------------------------------------------------|
D|----0-------------------0-----------------------------0-----------------------------------------------|

D|--------------0----------------0--------------7-------6------------6---------------------------------|
A|--------0----------------------------------------8----5-------5------------------------------7-------|
F|--------------------11/12--------------9--------------6---6----------------------------5-------------|
C|---------------------------------------------------------------------------------7-------------------|
G|---------------------------------------------------------------------------6-------------------------|
D|----0-------------------0-----------------------------0----------------------------------------------|

D|--------------------------0---3----------2----0---------------------------|
A|---------------------3------------3------3-------3------------------------|
F|----------------0------------------------0-----------0---------0----------|
C|---------2/4---------------------------------------------2/4-------4----2-|
G|----3------------------------------------3--------------------------------|
D|--------------------------------------------------------------------------|

D|------------------------0------------------------|
A|-------------------4---------4-------------------|
F|--------------5-------------------5--------------|
C|---------7-----------------------------7---------|
G|----0---------------------------------------0----|
D|-------------------------------------------------|

D|--------------------------0----------------------------0----------|
A|---------------------7----------------------------10--------------|
F|---------------8-----------------------------11-------------------|
C|---------10-----------------------------13------------------------|
G|----0------------------------------0------------------------------|
D|------------------------------------------------------------------|

D|-------------------------------------------------------------0---------------|
A|------------------------0-------------------------------0---------0----------|
F|-------------------0--------------0----------------3-------------------2-----|
C|------------2/4---------------7----------------4---------------------------3-|
G|--------2--------------------------------------------------------------------|
D|----0------------------------------------2-------------------1---------------|

D|----------------------------------------------------------------------------0----|
A|---------------------------0------------------------0------------------4---------|
F|----------------0--------------0---------------2-----------------0---------------|
C|----------2/4------10---------------------4--------------------------------------|
G|-------2-----------------------------3----------------------2--------------------|
D|----0----------------------------------------------------------------------------|

D|-------------------------------------------------------------0---------------|
A|------------------------0-------------------------------0---------0----------|
F|-------------------0--------------0----------------3-------------------2-----|
C|------------2/4---------------7----------------4---------------------------3-|
G|--------2--------------------------------------------------------------------|
D|----0------------------------------------2-------------------1---------------|

D|-------------------0---------------------0------------------0---------------0----|
A|---------------4---------------------4----------------4------------------4-------|
F|-----------4--------------------2-----------------2------------------------------|
C|---------------------------------------------------------------------4-----------|
G|----2-------------------0--------------------------------------------------------|
D|----------------------------------------------3------------------2---------------|

D|-------------------------0-------------0----------------------------|
A|----------------------------4----------4----------------------------|
F|-----------------0-------------0-------0----------------------------|
C|-----------2/4-------------------------4----------------------------|
G|-------2-------------------------------2----------------------------|
D|----0----------------------------------0----------------------------|

      H.H        H.H
D|---------------0(12)-------------------------------------------------|
A|----4(16)------------------------------------------------------------|
F|---------------------------------------------------------------------|
C|---------------------------------------------------------------------|
G|---------------------------------------------------------------------|
D|---------------------------------------------------------------------|
        T          T

[Guitarra Solo]

     P.M          .     .     .     .     .     .               .
D|-------------------------------------------------------|
A|-------------------------------------------------------|
F|----------------------------------4-----2--------------|
C|----------------2-----4-----5-----------------5--------|
G|----------2--------------------------------------------|
D|----0--------------------------------------------------|

      P.M    .     .          P.M    .     .
D|-----------------------0-----------------------0-------|
A|-----------------2-----------------------1-------------|
F|-----------3-----------------------2-------------------|
C|-----4-----------------------3-------------------------|
G|-------------------------------------------------------|
D|-------------------------------------------------------|

     P.M          .     .     .     .     .     .               .
D|-------------------------------------------------------|
A|-------------------------------------------------------|
F|----------------------------------4-----2--------------|
C|----------------2-----4-----5-----------------5--------|
G|----------2--------------------------------------------|
D|----0--------------------------------------------------|

     P.M          .     .     .     .     .     .     .
D|------------------------------------------------------|
A|------------------------------------------------------|
F|----------------------2-----------------2-------------|
C|----4-----------4-----------------1-----------1-------|
G|----------3-----------------2-------------------------|
D|------------------------------------------------------|

      P.M    .     .          P.M    .     .
D|-----------------------0-----------------------0-------|
A|-----------------2-----------------------1-------------|
F|-----------3-----------------------2-------------------|
C|-----4-----------------------3-------------------------|
G|-------------------------------------------------------|
D|-------------------------------------------------------|

     P.M          .     .     .     .     .     .               .
D|-------------------------------------------------------|
A|-------------------------------------------------------|
F|----------------------------------4-----2--------------|
C|----------------2-----4-----5-----------------5--------|
G|----------2--------------------------------------------|
D|----0--------------------------------------------------|

D|-------------------------------------------------------|
A|----------------4-----------------------0--------------|
F|-------------------------------------------------------|
C|----------4-----------4-----------4-----------4--------|
G|----2-----------------------0--------------------------|
D|-------------------------------------------------------|

D|-------------------------------------------------------|
A|----------------0-----------------------2--------------|
F|-------------------------------------------------------|
C|----------2-----------2-----------1-----------1--------|
G|-------------------------------------------------------|
D|----3-----------------------2--------------------------|

     P.M  .   .   .
D|-------------------------------------------------------|
A|-------------------------------------------------------|
F|-------------------------------------------------------|      (3x)
C|----2---2---2---2--------------------------------------|
G|----2---2---2---2--------------------------------------|
D|----0---0---0---0--------------------------------------|

D|-------------------------------------------------------|
A|-------------------------------------------------------|
F|-------------------------------------------------------|
C|----4-------------------------4------------------------|
G|----2-------------------------0------------------------|
D|-------------------------------------------------------|

D|-------------------------------------------------------|
A|-------------------------------------------------------|
F|----4--------------------------------------------------|
C|----2--------------------------------------------------|
G|-------------------------------4-----------------------|
D|----3--------------------------2-----------------------|

     P.M  .   .   .
D|-------------------------------------------------------|
A|-------------------------------------------------------|
F|-------------------------------------------------------|
C|----2---2---2---2--------------------------------------|
G|----2---2---2---2--------------------------------------|
D|----0---0---0---0--------------------------------------|

        P.M  .          .       .
D|----------------------0-----------------------0--------|
A|----------------7-----------------------6--------------|
F|----------6-----------------------5--------------------|
C|----8-----------------------7--------------------------|
G|-------------------------------------------------------|
D|-------------------------------------------------------|

     P.M  .   .   .
D|-------------------------------------------------------|
A|-------------------------------------------------------|
F|-------------------------------------------------------|
C|----2---2---2---2--------------------------------------|
G|----2---2---2---2--------------------------------------|
D|----0---0---0---0--------------------------------------|

D|-------------------------------------------------------|
A|-------------------------------------------------------|
F|----------------------5-----------------5--------------|
C|----7-----------7-----------------7-----------7--------|
G|----------7-----------------6--------------------------|
D|-------------------------------------------------------|

     P.M  .   .   .
D|-------------------------------------------------------|
A|-------------------------------------------------------|
F|-------------------------------------------------------|
C|----2---2---2---2--------------------------------------|
G|----2---2---2---2--------------------------------------|
D|----0---0---0---0--------------------------------------|

     P.M    .     .       .      .     .
D|----------------------0-------------------------0------|
A|----------------7--------------------------6-----------|
F|----------6--------------------------5-----------------|
C|----8-------------------------7------------------------|
G|-------------------------------------------------------|
D|-------------------------------------------------------|

D|-------------------------------------------------------|
A|-------------------------------------------------------|
F|-------------------------------------------------------|
C|----4-------------------------4------------------------|
G|----2-------------------------0------------------------|
D|-------------------------------------------------------|

D|-------------------------------------------------------|
A|-------------------------------------------------------|
F|----4--------------------------------------------------|
C|----2--------------------------------------------------|
G|-------------------------------4-----------------------|
D|----3--------------------------2-----------------------|

[Guitarra Base]

     P.M  .   .   .
D|-------------------------------------------------------|
A|-------------------------------------------------------|
F|-------------------------------------------------------|      (3x)
C|----2---2---2---2--------------------------------------|
G|----2---2---2---2--------------------------------------|
D|----0---0---0---0--------------------------------------|

D|-------------------------------------------------------|
A|-------------------------------------------------------|
F|-------------------------------------------------------|
C|----4-------------------------4------------------------|
G|----2-------------------------0------------------------|
D|-------------------------------------------------------|

D|-------------------------------------------------------|
A|-------------------------------------------------------|
F|----4--------------------------------------------------|
C|----2--------------------------------------------------|
G|-------------------------------4-----------------------|
D|----3--------------------------2-----------------------|

     P.M          .     .     .     .     .     .                .
D|-------------------------------------------------------|
A|-------------------------------------------------------|
F|----------------------------------4-----2--------------|
C|----------------2-----4-----5-----------------5--------|
G|----------2--------------------------------------------|
D|----0--------------------------------------------------|

      P.M    .     .          P.M    .     .
D|-----------------------0-----------------------0-------|
A|-----------------2-----------------------1-------------|
F|-----------3-----------------------2-------------------|
C|-----4-----------------------3-------------------------|
G|-------------------------------------------------------|
D|-------------------------------------------------------|

     P.M          .     .     .     .     .     .               .
D|-------------------------------------------------------|
A|-------------------------------------------------------|
F|----------------------------------4-----2--------------|
C|----------------2-----4-----5-----------------5--------|
G|----------2--------------------------------------------|
D|----0--------------------------------------------------|

     P.M          .     .     .     .     .     .     .
D|------------------------------------------------------|
A|------------------------------------------------------|
F|----------------------2-----------------2-------------|
C|----4-----------4-----------------1-----------1-------|
G|----------3-----------------2-------------------------|
D|------------------------------------------------------|

      P.M    .     .          P.M    .     .
D|-----------------------0-----------------------0-------|
A|-----------------2-----------------------1-------------|
F|-----------3-----------------------2-------------------|
C|-----4-----------------------3-------------------------|
G|-------------------------------------------------------|
D|-------------------------------------------------------|

     P.M          .     .     .     .     .     .               .
D|-------------------------------------------------------|
A|-------------------------------------------------------|
F|----------------------------------4-----2--------------|
C|----------------2-----4-----5-----------------5--------|
G|----------2--------------------------------------------|
D|----0--------------------------------------------------|

D|-------------------------------------------------------|
A|----------------4-----------------------0--------------|
F|-------------------------------------------------------|
C|----------4-----------4-----------4-----------4--------|
G|----2-----------------------0--------------------------|
D|-------------------------------------------------------|

D|-------------------------------------------------------|
A|----------------0-----------------------2--------------|
F|-------------------------------------------------------|
C|----------2-----------2-----------1-----------1--------|
G|-------------------------------------------------------|
D|----3-----------------------2--------------------------|

[Solo]

D|----11---------------------------12------------------------|
A|----12b14------------------------15b17---------------------|
F|-----------------------------------------------------------|
C|-----------------------------------------------------------|
G|-----------------------------------------------------------|
D|-----------------------------------------------------------|

D|----14--------------------------15-------------------------|
A|----17b19-----------------------18b20----------------------|
F|-----------------------------------------------------------|
C|-----------------------------------------------------------|
G|-----------------------------------------------------------|
D|-----------------------------------------------------------|

D|-22b24~~~--------------------------------------------------|
A|--------------18b20~~~-----16b18----16b18~~~---------------|
F|-----------------------------------------------------------|
C|-----------------------------------------------------------|
G|-----------------------------------------------------------|
D|-----------------------------------------------------------|

D|-------------19-------------20-------------19-------------18-------------19-------------------|
A|----------------------------------------------------------------------------------------------|
F|----12/16----------16/17----------17\16----------16\15----------15/16----------16\12----------|
C|----------------------------------------------------------------------------------------------|
G|----------------------------------------------------------------------------------------------|
D|----------------------------------------------------------------------------------------------|

D|-----------------------------------------------------------|
A|-----------------------------------------------------------|
F|----11h12p11-----------------------------------------------|
C|-------------------14--------------------------------------|
G|-----------------------------------------------------------|
D|-----------------------------------------------------------|

D|-----------------------------------------------------------|
A|-----------------------------------------------------------|
F|----------11--12--14--12--14p12--11--12--14--14b16--12-----|
C|----14-----------------------------------------------------|
G|-----------------------------------------------------------|
D|-----------------------------------------------------------|

D|-----------------------------------------------------------|
A|-------------------------------16--------------------------|
F|----14b16--14b16-------------------------------------------|
C|-----------------------------------------------------------|
G|-----------------------------------------------------------|
D|-----------------------------------------------------------|

D|--------------------------------------------------------------------------------------------|
A|----17---------19b21--19b21--19b21r19--17----19b20--19b20r19--19b20--19b20--19b20r19--15b---|
F|--------------------------------------------------------------------------------------------|
C|--------------------------------------------------------------------------------------------|
G|--------------------------------------------------------------------------------------------|
D|--------------------------------------------------------------------------------------------|

D|----12------12--14------12-------------------------------------------------------------|
A|--------15----------15------12--15------12---------------------------------------------|
F|------------------------------------14------15--14--12----------14--12-----------------|
C|--------------------------------------------------------14--12----------14--12---------|
G|--------------------------------------------------------------------------------14-----|
D|---------------------------------------------------------------------------------------|

D|-------------------------------------|
A|-------------------------------------|
F|-------------------------------------|
C|-------------------------------------|
G|----10b----------------7b------------|
D|-------------------------------------|

D|------------------------------------------------------|
A|----------------------------------7-----8--7--10--8---|
F|----------------------------9--8-----9----------------|
C|----------------9--7--5--7----------------------------|
G|----9--7--6--7----------------------------------------|
D|------------------------------------------------------|

D|----7----------------------------|
A|-------10b12r10b12r10b12r10b12---|
F|---------------------------------|
C|---------------------------------|
G|---------------------------------|
D|---------------------------------|

D|-------------------------12--14--15--17--15h17p15--14--15---|
A|----13---13--12--13--15-------------------------------------|
F|------------------------------------------------------------|
C|------------------------------------------------------------|
G|------------------------------------------------------------|
D|------------------------------------------------------------|

D|----17b19--17b19r17--15--18b20r18b20r18------------------|
A|-----------------------------------------------15--17----|
F|---------------------------------------------------------|
C|---------------------------------------------------------|
G|---------------------------------------------------------|
D|---------------------------------------------------------|

D|----15--20--19--15------15------15-----------------------------------|
A|--------------------20------20------17--15------15--------------15---|
F|--------------------------------------------17------17--16--17-------|
C|---------------------------------------------------------------------|
G|---------------------------------------------------------------------|
D|---------------------------------------------------------------------|

D|--------15--19------15------------------------------------------19--|
A|----17----------17------19--17--19----------17--------------17------|
F|------------------------------------16--19------19--16--19----------|
C|--------------------------------------------------------------------|
G|--------------------------------------------------------------------|
D|--------------------------------------------------------------------|

D|----18p14----------14--------------17p13----------13--------------|
A|-----------17--14------17--14-------------17--13------17--13------|
F|-------------------------------15-----------------------------14--|
C|------------------------------------------------------------------|
G|------------------------------------------------------------------|
D|------------------------------------------------------------------|

D|----17p12------12--15p12------12---------------------------------|
A|-----------16-------------17------12--15------12-----------------|
F|------------------------------------------14------14p12--14p12---|
C|-----------------------------------------------------------------|
G|-----------------------------------------------------------------|
D|-----------------------------------------------------------------|

D|---------------------------------------------------------------------------|
A|--------------14--17--15--13-------------13--16--13--16b18r16b18r16--16b---|
F|---------15--------------------------14------------------------------------|
C|----16---------------------------15----------------------------------------|
G|---------------------------------------------------------------------------|
D|----------------------------------------------------------------------------|

D|----------------------------------------------------------------------------15-----------------------|
A|----------------------------------------------------16--------------------------19--17--16--17--19---|
F|----12----------------------16--------------------------19--17--16--17--19---------------------------|
C|--------16--14--13--14--16------19--17--16--17--19---------------------------------------------------|
G|-----------------------------------------------------------------------------------------------------|
D|-----------------------------------------------------------------------------------------------------|

D|----15--15--15--12------12--12------------------------------------------|
A|--------------------15----------15--12--15--15--12-----12--12-----------|
F|----------------------------------------------------14---------14--12---|
C|------------------------------------------------------------------------|
G|------------------------------------------------------------------------|
D|-----------------------------------------------------------------------|

D|---------------------------------------------------------------------|
A|---------------------------------------------------------------------|
F|----14--14--12------12--12-------------------------------------------|
C|----------------14----------14--12--14--12---------------------------|
G|--------------------------------------------14--13--12--10--12--10---|
D|---------------------------------------------------------------------|

D|----------------------------------|
A|----------------------------------|
F|----------------------------------|
C|----------------------------------|
G|----12b14r12b14~~~----------------|
D|----------------------------------|

D|------------------------------------17--19--20--19--17------17--19-------19---|
A|--------------------------------17----------------------20--------------------|
F|--------------------14--16--18------------------------------------------------|
C|----------------14------------------------------------------------------------|
G|----12--14--16----------------------------------------------------------------|
D|------------------------------------------------------------------------------|

D|----1719--------19--------19/17--------17--------15\17--------17\15--------|
A|---------------------------------------------------------------------------|
F|-----------16--------16-----------14--------14-----------14-----------12---|
C|---------------------------------------------------------------------------|
G|---------------------------------------------------------------------------|
D|---------------------------------------------------------------------------|

D|----15------12--0--10p8p7------------------------------------|
A|---------------------------10p8p7----------------------------|
F|--------12--------------------------9------------------------|
C|-------------------------------------------------------------|
G|-------------------------------------------------------------|
D|-------------------------------------------------------------|

D|----11------11--12--14--12--11------11--12--11-----------------------------------------------|
A|--------13----------------------13--------------13--12--10------10--12--13--12--10------10---|
F|------------------------------------------------------------12----------------------12-------|
C|---------------------------------------------------------------------------------------------|
G|---------------------------------------------------------------------------------------------|
D|---------------------------------------------------------------------------------------------|

D|--------------------------------------------------------------------------|
A|----12p10p8---------------------------------------------------------------|
F|---------------12p11p9----------------------------------------------------|
C|--------------------------12p10p9-----------------------------------------|
G|--------------------------------------12p10p9-----------------------------|
D|-----------------------------------------------12----14----15-------------|

D|-----------------------------------------------------------------|
A|-----------------------------------------------------------------|
F|----------------------------------14-----------------------------|
C|----------------14----16----17-----------------------------------|
G|----14----15-----------------------------------------------------|
D|-----------------------------------------------------------------|

D|----12----------------------------14------------------------------|
A|----15b17-------------------------17b19---------------------------|
F|------------------------------------------------------------------|
C|------------------------------------------------------------------|
G|------------------------------------------------------------------|
D|------------------------------------------------------------------|

D|----15-------------------------------------------17---19---19---19-----|
A|----18b20-------------------------15---17---19-------------------------|
F|-----------------------------------------------------------------------|
C|-----------------------------------------------------------------------|
G|-----------------------------------------------------------------------|
D|-----------------------------------------------------------------------|

D|----24b19-------------19b15-------------15b12-------------------------------------|
A|------------20----------------15----------------12--------------------------------|
F|-----------------21----------------16----------------12---11---12---11------------|
C|-------------------------------------------------------------------------14---13--|
G|----------------------------------------------------------------------------------|
D|----------------------------------------------------------------------------------|

D|-----------------------------------------------------------------|
A|-----------------------------------------------------------------|
F|-----------------------------16---14-----------------------------|
C|----14--------14---16---17-------------17------------------------|
G|---------14------------------------------------------------------|
D|-----------------------------------------------------------------|

D|-----------------------------------------------------------------|
A|-------------------14--------------------------------------------|
F|----15--------15--------17--------14---17------------------------|
C|---------16------------------15----------------------------------|
G|-----------------------------------------------------------------|
D|-----------------------------------------------------------------|

D|-----------------------------17---19---20----------------------|
A|----17--------17---19---20-------------------------------------|
F|---------16----------------------------------------------------|
C|---------------------------------------------------------------|
G|---------------------------------------------------------------|
D|---------------------------------------------------------------|

D|----19---------------------------17b19~~------17b19r17---17---15----|
A|--------------------------------------------------------------------|
F|--------------------------------------------------------------------|
C|--------------------------------------------------------------------|
G|--------------------------------------------------------------------|
D|--------------------------------------------------------------------|

D|----14--15--14------------------------------------------------|
A|-----------------15--17---------------------------------------|
F|--------------------------------------------------------------|
C|--------------------------------------------------------------|
G|--------------------------------------------------------------|
D|--------------------------------------------------------------|

D|----14--15--14--12----------------------------------------------------|
A|---------------------15-----------------------------------------------|
F|--------------------------14--12--11--12--11------11--12--11--12--14--|
C|----------------------------------------------14----------------------|
G|----------------------------------------------------------------------|
D|----------------------------------------------------------------------|

D|-----------------------------------------------------------------|
A|-----------------------------------------------------------------|
F|----14b16~~-----------14b16r14~~-----------14--------------------|
C|-----------------------------------------------------------------|
G|-----------------------------------------------------------------|
D|-----------------------------------------------------------------|

D|-----------------------------------------------------------------|
A|-----------------------------------------------------------------|
F|----11b13~~-----------11b13r11~~-----------11--------------------|
C|-----------------------------------------------------------------|
G|-----------------------------------------------------------------|
D|-----------------------------------------------------------------|

D|----------------------------------------------------------------------------------------|
A|----------------------------------------------------------------------------------------|
F|----11p8h11p8h11p8h11p8---11p8h11p8h11p8h11p8---12p9h12p9h12p9h12---12p9h12p9h12p9h12---|
C|----------------------------------------------------------------------------------------|
G|----------------------------------------------------------------------------------------|
D|----------------------------------------------------------------------------------------|

D|------------------------------------------------------------------------------------------------------------|
A|------------------------------------------------------------------------------------------------------------|
F|----14p11h14p11h14p11h14p11---14p11h14p11h14p11h14p11---16p12h16p12h16p12h16p12---16p12h16p12h16p12h16p12---|
C|------------------------------------------------------------------------------------------------------------|
G|------------------------------------------------------------------------------------------------------------|
D|------------------------------------------------------------------------------------------------------------|

D|------------------------------------------------------------------------------------------|
A|------------------------------------------------12p10p8---12p8h10---13p12p10---13p10h12---|
F|----14p12p11---14p11h12---14p12p11---14p11h12---------------------------------------------|
C|------------------------------------------------------------------------------------------|
G|------------------------------------------------------------------------------------------|
D|------------------------------------------------------------------------------------------|

D|--------------------------14p12p10---14p12h10---15p14p12---15p12h14---17p15h17h19p17p15---|
A|----15p13p12---15p12h13-------------------------------------------------------------------|
F|------------------------------------------------------------------------------------------|
C|------------------------------------------------------------------------------------------|
G|------------------------------------------------------------------------------------------|
D|------------------------------------------------------------------------------------------|

D|----22b24-----22b24~~~-------------------------------------------|
A|-----------------------------------------------------------------|
F|-----------------------------------------------------------------|
C|-----------------------------------------------------------------|
G|-----------------------------------------------------------------|
D|-----------------------------------------------------------------|
Composição de Dave Mustaine / Kiko Loureiro
Colaboração e revisão:
  • Gustavo Rolim
8.242 exibições
    • ½ Tom
    • A
    • Bb
    • B
    • C
    • Db
    • D
    • Eb
    • E
    • F
    • F#
    • G
    • Ab
  • Adicionar à lista

    0 comentários

    Mostrar mais comentários

    Conseguiu tocar?

    3 Tocaram 0 Ainda não

    Grave um vídeo tocando Conquer Or Die e mande pra gente!

    00:00 / 00:00
    outros vídeos desta música
    repetir qualidade Automático
    Outros vídeos desta música
    00:00 / 00:00
    Automático
    OK