Cifra Club

Disconnect

Megadeth

Cifra: Principal (violão e guitarra)
Selo Cifra Club: esta cifra foi revisada para atender aos critérios oficiais da nossa Equipe de Qualidade.
tom: C
                                  

Guitar 1
                                                       
E||--------------------------|------------------------|
B||--------------------------|------------------------|
G||--------------------------|------------------------|
D||--------5--------4--------|----2-------------4--5--|
A||-----7--------5--------3~-|---------------6--------|
E||--0--------0--------0-----|-------0/-7-------------|


                                                                               
--------------------------|------------------------|--------------------------|
--------------------------|------------------------|--------------------------|
--------------------------|------------------------|--------------------------|
--------5--------4--------|----2-------------4--5--|--------5--------4--------|
-----7--------5--------3~-|---------------6--------|-----7--------5--------3~-|
--0--------0--------0-----|-------0/-7-------------|--0--------0--------0-----|


                                                                                
------------------------|--------------------------|---------------------------|
------------------------|--------------------------|---------------------------|
------------------------|--------------------------|---------------------------|
----2-------------------|--------4--------------4--|---------------------------|
------------------------|-----------5--7-----------|--5--7--------------10--9--|
-------0/-7----6--5--3--|--0--0-----------0--0-----|--------0--0--7--8---------|


                                                       
--------------------------|---------------------------|
--------------------------|---------------------------|
--------------------------|---------------------------|
--------4--------------4--|---------------------------|
-----------5--7-----------|--5--7--------------10--9--|
--0--0-----------0--0-----|--------0--0--7--8---------|


                                                       
--------------------------|---------------------------|
--------------------------|---------------------------|
--------------------------|---------------------------|
--------4--------------4--|---------------------------|
-----------5--7-----------|--5--7--------------10--9--|
--0--0-----------0--0-----|--------0--0--7--8---------|


                                                          
--------------------------|------------------------------|
--------------------------|------------------------------|
--------------------------|------------------------------|
--------4--------------4--|------------------------------|
-----------5--7-----------|--5--7------------------10----|
--0--0-----------0--0-----|--------0--0--7----8----------|


                                                         
|---------------------------|---------------------------|
|---------------------------|---------------------------|
|*--------------------------|---------------------------|
|*--------4--------------4--|---------------------------|
|------------5--7-----------|--5--7--------------10--9--|
|---0--0-----------0--0-----|--------0--0--7--8---------|


                                                       
--------------------------|---------------------------|
--------------------------|---------------------------|
--------------------------|---------------------------|
--------4--------------4--|---------------------------|
-----------5--7-----------|--5--7--------------10--9--|
--0--0-----------0--0-----|--------0--0--7--8---------|


                                                       
--------------------------|---------------------------|
--------------------------|---------------------------|
--------------------------|---------------------------|
--------4--------------4--|---------------------------|
-----------5--7-----------|--5--7--------------10--9--|
--0--0-----------0--0-----|--------0--0--7--8---------|


                                                            
--------------------------|-------------------------------||
--------------------------|-------------------------------||
--------------------------|------------------------------*||
--------4--------------4--|------------------------------*||
-----------5--7-----------|--5--7------------------10-----||
--0--0-----------0--0-----|--------0--0--7----8-----------||


                                                                               
-------------------------|--------------------------|-------------------------|
-------------------------|--------------------------|-------------------------|
-------------------------|--------------------------|-------------------------|
--2----------------------|-----------------------2--|----2--------------------|
--0----3p-0--0--5p-0--0--|--3p-0--0--5p-0--6p-0--0--|----0--3p-0--0--5p-0--0--|
-------------------------|--------------------------|-------------------------|


                                                                               
--------------------------|--------------------------|------------------------|
--------------------------|--------------------------|------------------------|
--------------------------|--------------------------|------------------------|
--------------------------|--------5--------4--------|----2-------------4--5--|
--3p-0--0--6p-0--5p-0--2--|-----7--------5--------3~-|---------------6--------|
-----------------------0--|--0--------0--------0-----|-------0/-7-------------|


                                                                               
--------------------------|------------------------|--------------------------|
--------------------------|------------------------|--------------------------|
--------------------------|------------------------|--------------------------|
--------5--------4--------|----2-------------4--5--|--------5--------4--------|
-----7--------5--------3~-|---------------6--------|-----7--------5--------3~-|
--0--------0--------0-----|-------0/-7-------------|--0--------0--------0-----|


                                                    
------------------------|--------------------------|
------------------------|--------------------------|
------------------------|--------------------------|
----2-------------4--5--|--------5--------4--------|
---------------6--------|-----7--------5--------3~-|
-------0/-7-------------|--0--------0--------0-----|


                                                        
----------------------------|--------------------------|
----------------------------|--------------------------|
----------------------------|--------------------------|
----2-----------------------|--------4--------------4--|
-------------6----5----4----|-----------5--7-----------|
-------0--0/-7----6----5----|--0--0-----------0--0-----|


                                                       
---------------------------|--------------------------|
---------------------------|--------------------------|
---------------------------|--------------------------|
---------------------------|--------4--------------4--|
--5--7--------------10--9--|-----------5--7-----------|
--------0--0--7--8---------|--0--0-----------0--0-----|


                                                         
---------------------------||---------------------------|
---------------------------||---------------------------|
---------------------------||*--------------------------|
---------------------------||*--------4--------------4--|
--5--7--------------10--9--||------------5--7-----------|
--------0--0--7--8---------||---0--0-----------0--0-----|


                                                       
---------------------------|--------------------------|
---------------------------|--------------------------|
---------------------------|--------------------------|
---------------------------|--------4--------------4--|
--5--7--------------10--9--|-----------5--7-----------|
--------0--0--7--8---------|--0--0-----------0--0-----|


                                                       
---------------------------|--------------------------|
---------------------------|--------------------------|
---------------------------|--------------------------|
---------------------------|--------4--------------4--|
--5--7--------------10--9--|-----------5--7-----------|
--------0--0--7--8---------|--0--0-----------0--0-----|


                                                       
---------------------------|--------------------------|
---------------------------|--------------------------|
---------------------------|--------------------------|
---------------------------|--------4--------------4--|
--5--7--------------10--9--|-----------5--7-----------|
--------0--0--7--8---------|--0--0-----------0--0-----|


                                                           
-------------------------------||-------------------------|
-------------------------------||-------------------------|
------------------------------*||-------------------------|
------------------------------*||--2----------------------|
--5--7------------------10-----||--0----3p-0--0--5p-0--0--|
--------0--0--7----8-----------||-------------------------|


                                                                                
--------------------------|-------------------------|--------------------------|
--------------------------|-------------------------|--------------------------|
--------------------------|-------------------------|--------------------------|
-----------------------2--|----2--------------------|--------------------------|
--3p-0--0--5p-0--6p-0--0--|----0--3p-0--0--5p-0--0--|--3p-0--0--6p-0--5p-0--2--|
--------------------------|-------------------------|-----------------------0--|


                                                                               
--------------------------|------------------------|--------------------------|
--------------------------|------------------------|--------------------------|
--------------------------|------------------------|--------------------------|
--------5--------4--------|----2-------------4--5--|--------5--------4--------|
-----7--------5--------3~-|---------------6--------|-----7--------5--------3~-|
--0--------0--------0-----|-------0/-7-------------|--0--------0--------0-----|


                                                                             
------------------------|--------------------------|------------------------|
------------------------|--------------------------|------------------------|
------------------------|--------------------------|------------------------|
----2-------------4--5--|--------5--------4--------|----2-------------4--5--|
---------------6--------|-----7--------5--------3~-|---------------6--------|
-------0/-7-------------|--0--------0--------0-----|-------0/-7-------------|


                                                                            
--------------------------|----------------------------|-------------------|
--------------------------|----------------------------|-------------------|
--------------------------|----------------------------|-------------------|
--------5--------4--------|----2-----------------------|-------------------|
-----7--------5--------3~-|-------------6----5----4----|--2----------------|
--0--------0--------0-----|-------0--0/-7----6----5----|--0----------------|


                                                                            
------------------|------------------|------------------|------------------|
------------------|------------------|------------------|------------------|
------------------|------------------|------------------|------------------|
------------------|------------------|------------------|------------------|
------------------|------------------|------------------|------------------|
------------------|------------------|------------------|------------------|


                                                                             
------------------|------------------|------------------|-------------------|
------------------|------------------|------------------|-------------------|
------------------|------------------|------------------|-------------------|
------------------|------------------|------------------|-------------------|
------------------|------------------|------------------|--2----------------|
------------------|------------------|------------------|--0----------------|


                                                                            
------------------|------------------|------------------|------------------|
------------------|------------------|------------------|------------------|
------------------|------------------|------------------|------------------|
------------------|------------------|------------------|------------------|
------------------|------------------|------------------|------------------|
------------------|------------------|------------------|------------------|


                                                         
------------------|------------------|------------------|
------------------|------------------|------------------|
------------------|------------------|------------------|
------------------|------------------|------------------|
------------------|------------------|------------------|
------------------|------------------|------------------|


                                                      
--------------------------|--------------------------|
--------------------------|--------------------------|
--------------------------|--------------------------|
--------------------------|--------------------------|
--------------------------|--2--2--2--2--2--2--2--2--|
--0--0--0--0--0--0--0--0--|--------------------------|


                                                      
--------------------------|--------------------------|
--------------------------|--------------------------|
--------------------------|--------------------------|
--2--2--2--2--2--2--2--2--|--1--1--1--1--1--1--1--1--|
--3--3--3--3--3--3--3--3--|--2--2--2--2--2--2--2--2--|
--------------------------|--------------------------|


                                                      
--------------------------|--------------------------|
--------------------------|--------------------------|
--------------------------|--------------------------|
--------------------------|--------------------------|
--------------------------|-----------0--------0--2--|
--0--0--0--0--0--0--0--0--|--0--2--3-----2--3--------|


                                                      
--------------------------|--------------------------|
--------------------------|--------------------------|
--------------------------|--------------------------|
--------------------------|--------------------------|
--3--3--3--3--3--3--3--2--|--3--2--0-----2--0--------|
--------------------------|-----------3--------3--2--|


                                                      
--------------------------|--------------------------|
--------------------------|--------------------------|
--------------------------|--------------------------|
--------------------------|--------------------------|
--------------------------|--2--2--2--2--2--2--2--2--|
--0--0--0--0--0--0--0--0--|--------------------------|


                                                      
--------------------------|--------------------------|
--------------------------|--------------------------|
--------------------------|--------------------------|
--2--2--2--2--2--2--2--2--|--1--1--1--1--1--1--1--1--|
--3--3--3--3--3--3--3--3--|--2--2--2--2--2--2--2--2--|
--------------------------|--------------------------|


                                                      
--------------------------|--------------------------|
--------------------------|--------------------------|
--------------------------|--------------------------|
--------------------------|--------------------------|
--------------------------|-----------0--------0--2--|
--0--0--0--0--0--0--0--0--|--0--2--3-----2--3--------|


                                                      
--------------------------|--------------------------|
--------------------------|--------------------------|
--------------------------|--------------------------|
--------------------------|--------------------------|
--3--3--3--3--3--3--3--2--|--3--2--0-----2--0--------|
--------------------------|-----------3--------3--2--|


                                                                
|---------------------------|----------------------------------|
|---------------------------|----------------------------------|
|*--------------------------|----------------------------------|
|*--9--9--9--9--9--9--9--9--|--12--12--12--12--12--12--12--12--|
|---7--7--7--7--7--7--7--7--|--10--10--10--10--10--10--10--10--|
|---------------------------|----------------------------------|


                                                              
----------------------------------|--------------------------|
----------------------------------|--------------------------|
----------------------------------|--------------------------|
----------------------------------|--------------------------|
--10--10--10--10--10--10--10--10--|--6--6--6--6--6--6--6--6--|
--8---8---8---8---8---8---8---8---|--7--7--7--7--7--7--7--7--|


                                                              
--------------------------|----------------------------------|
--------------------------|----------------------------------|
--------------------------|----------------------------------|
--------------------------|----------------------------------|
--------------------------|--10--10--10--10--10--10--10--10--|
--0--0--0--0--0--0--0--0--|--7---7---7---7---7---7---7---7---|


                                                        
--------------------------|---------------------------||
--------------------------|---------------------------||
--------------------------|--------------------------*||
--------------------------|--------------------------*||
--7--7--7--7--7--7--7--7--|--6--6--6--6--6--6--6--6---||
--8--8--8--8--8--8--8--8--|--7--7--7--7--7--7--7--7---||


                                                      
--------------------------|--------------------------|
--------------------------|--------------------------|
--------------------------|--------------------------|
--------------------------|--------------------------|
--------------------------|-----------0--------0--2--|
--0--0--0--0--0--0--0--0--|--0--2--3-----2--3--------|


                                                      
--------------------------|--------------------------|
--------------------------|--------------------------|
--------------------------|--------------------------|
--------------------------|--------------------------|
--3--3--3--3--3--3--3--2--|--3--2--0-----2--0--------|
--------------------------|-----------3--------3--2--|


                                                      
--------------------------|--------------------------|
--------------------------|--------------------------|
--------------------------|--------------------------|
--------------------------|--------------------------|
--------------------------|-----------0--------0--2--|
--0--0--0--0--0--0--0--0--|--0--2--3-----2--3--------|


                                                      
--------------------------|--------------------------|
--------------------------|--------------------------|
--------------------------|--------------------------|
--------------------------|--------------------------|
--3--3--3--3--3--3--3--2--|--3--2--0-----2--0--------|
--------------------------|-----------3--------3--2--|


                                                      
--------------------------|--------------------------|
--------------------------|--------------------------|
--------------------------|--------------------------|
--------------------------|--------------------------|
--------------------------|-----------0--------0--2--|
--0--0--0--0--0--0--0--0--|--0--2--3-----2--3--------|


                                                      
--------------------------|--------------------------|
--------------------------|--------------------------|
--------------------------|--------------------------|
--------------------------|--------------------------|
--3--3--3--3--3--3--3--2--|--3--2--0-----2--0--------|
--------------------------|-----------3--------3--2--|


                                                      
--------------------------|--------------------------|
--------------------------|--------------------------|
--------------------------|--------------------------|
--------------------------|--------------------------|
--------------------------|-----------0--------0--2--|
--0--0--0--0--0--0--0--0--|--0--2--3-----2--3--------|


                                                      
--------------------------|--------------------------|
--------------------------|--------------------------|
--------------------------|--------------------------|
--------------------------|--------------------------|
--3--3--3--3--3--3--3--2--|--3--2--0-----2--0--------|
--------------------------|-----------3--------3--2--|


                                                       
--------------------------|---------------------------|
--------------------------|---------------------------|
--------------------------|---------------------------|
--------4--------------4--|---------------------------|
-----------5--7-----------|--5--7--------------10--9--|
--0--0-----------0--0-----|--------0--0--7--8---------|


                                                       
--------------------------|---------------------------|
--------------------------|---------------------------|
--------------------------|---------------------------|
--------4--------------4--|---------------------------|
-----------5--7-----------|--5--7--------------10--9--|
--0--0-----------0--0-----|--------0--0--7--8---------|


                                                       
--------------------------|---------------------------|
--------------------------|---------------------------|
--------------------------|---------------------------|
--------4--------------4--|---------------------------|
-----------5--7-----------|--5--7--------------10--9--|
--0--0-----------0--0-----|--------0--0--7--8---------|


                                                          
--------------------------|------------------------------|
--------------------------|------------------------------|
--------------------------|------------------------------|
--------4--------------4--|------------------------------|
-----------5--7-----------|--5--7------------------10----|
--0--0-----------0--0-----|--------0--0--7----8----------|


                                                       
--------------------------|---------------------------|
--------------------------|---------------------------|
--------------------------|---------------------------|
--------4--------------4--|---------------------------|
-----------5--7-----------|--5--7--------------10--9--|
--0--0-----------0--0-----|--------0--0--7--8---------|


                                                       
--------------------------|---------------------------|
--------------------------|---------------------------|
--------------------------|---------------------------|
--------4--------------4--|---------------------------|
-----------5--7-----------|--5--7--------------10--9--|
--0--0-----------0--0-----|--------0--0--7--8---------|


                                                       
--------------------------|---------------------------|
--------------------------|---------------------------|
--------------------------|---------------------------|
--------4--------------4--|---------------------------|
-----------5--7-----------|--5--7--------------10--9--|
--0--0-----------0--0-----|--------0--0--7--8---------|


                                                       
--------------------------|---------------------------|
--------------------------|---------------------------|
--------------------------|---------------------------|
--------4--------------4--|---------------------------|
-----------5--7-----------|--5--7--------------10--9--|
--0--0-----------0--0-----|--------0--0--7--8---------|


                                                       
--------------------------|---------------------------|
--------------------------|---------------------------|
--------------------------|---------------------------|
--------4--------------4--|---------------------------|
-----------5--7-----------|--5--7--------------10--9--|
--0--0-----------0--0-----|--------0--0--7--8---------|


                                                       
--------------------------|---------------------------|
--------------------------|---------------------------|
--------------------------|---------------------------|
--------4--------------4--|---------------------------|
-----------5--7-----------|--5--7--------------10--9--|
--0--0-----------0--0-----|--------0--0--7--8---------|


                                                       
--------------------------|---------------------------|
--------------------------|---------------------------|
--------------------------|---------------------------|
--------4--------------4--|---------------------------|
-----------5--7-----------|--5--7--------------10--9--|
--0--0-----------0--0-----|--------0--0--7--8---------|


                                                          
--------------------------|------------------------------|
--------------------------|------------------------------|
--------------------------|------------------------------|
--------4--------------4--|------------------------------|
-----------5--7-----------|--5--7------------------10----|
--0--0-----------0--0-----|--------0--0--7----8----------|


                                                          
--------------------------|------------------------------|
--------------------------|------------------------------|
--------------------------|------------------------------|
--------4--------------4--|------------------------------|
-----------5--7-----------|--5--7------------------10----|
--0--0-----------0--0-----|--------0--0--7----8----------|


                                                          
--------------------------|------------------------------|
--------------------------|------------------------------|
--------------------------|------------------------------|
--------4--------------4--|------------------------------|
-----------5--7-----------|--5--7------------------10----|
--0--0-----------0--0-----|--------0--0--7----8----------|


                                                          
--------------------------|------------------------------|
--------------------------|------------------------------|
--------------------------|------------------------------|
--------4--------------4--|------------------------------|
-----------5--7-----------|--5--7------------------10----|
--0--0-----------0--0-----|--------0--0--7----8----------|


                                                                               
--------------------------|------------------------------|-------------------||
--------------------------|------------------------------|-------------------||
--------------------------|------------------------------|-------------------||
--------4--------------4--|------------------------------|-------------------||
-----------5--7-----------|--5--7------------------10----|--2----------------||
--0--0-----------0--0-----|--------0--0--7----8----------|--0----------------||
Outros vídeos desta música
    4.293 exibições
      • ½ Tom
      • A
      • Bb
      • B
      • C
      • Db
      • D
      • Eb
      • E
      • F
      • F#
      • G
      • Ab
    • Adicionar à lista

    Afinação da cifra

    Afinador online

      0 comentários

      Ver todos os comentários

      Entre para o Cifra Club PRO

      Tenha acesso a benefícios exclusivos no App e no Site

      • Chega de anúncios

      • Badges exclusivas

      • Mais recursos no app do Afinador

      • Atendimento Prioritário

      • Aumente seu limite de lista

      • Ajude a produzir mais conteúdo

      Cifra Club Pro

      Aproveite o Cifra Club com benefícios exclusivos e sem anúncios
      Cifra Club Pro
      Aproveite o Cifra Club com benefícios exclusivos e sem anúncios
      OK