Cifra Club

Aprenda

Five Magics

Megadeth

Cifra: Principal (violão e guitarra)
tom: E
                            
Guitar I
                                                      
E||------------------|--------------------------------|
B||------------------|--------------------------------|
G||------------------|--------------------------------|
D||------------------|--------------------------------|
A||------------------|--7-5-----8------7-5-----8------|
E||------------------|------7-5-6--x-x-----7-5-6--x-x-|


                                                                
------------------------------|--------------------------------|
------------------------------|--------------------------------|
------------------------------|--------------------------------|
------------------------------|--------------------------------|
--7-5-----8------7-5-----5----|--7-5-----8------7-5-----8------|
------7-5-6--x-x-----7-5-3----|------7-5-6--x-x-----7-5-6--x-x-|


                                                                      
------------------------------|-------------------|------------------|
------------------------------|-------------------|------------------|
------------------------------|-------------------|------------------|
------------------------------|--2----------------|------------------|
--7-5-----8------7-5-----5----|--2----------------|------------------|
------7-5-6--x-x-----7-5-3----|--0----------------|------------------|


                                                                            
------------------|------------------|------------------|------------------|
------------------|------------------|------------------|------------------|
------------------|------------------|------------------|------------------|
------------------|------------------|------------------|------------------|
------------------|------------------|------------------|------------------|
------------------|------------------|------------------|------------------|


                                                                            
------------------|------------------|------------------|------------------|
------------------|------------------|------------------|------------------|
------------------|------------------|------------------|------------------|
------------------|------------------|------------------|------------------|
------------------|------------------|------------------|------------------|
------------------|------------------|------------------|------------------|


                                                                            
------------------|------------------|------------------|------------------|
------------------|------------------|------------------|------------------|
------------------|------------------|------------------|------------------|
------------------|------------------|------------------|------------------|
------------------|------------------|------------------|------------------|
------------------|------------------|------------------|------------------|


                                                               
------------------|-------------------||----------------------|
------------------|-------------------||----------------------|
------------------|--------------2/---||*--9------8-----------|
------------------|-------------------||*----------------9----|
------------------|-------------------||----------------------|
------------------|-------------------||----------------------|


                                                                     
-----------------------|---------------------|----------------------|
-----------------------|---------------------|-----------------8----|
-----------------------|--9------8-----------|----------------------|
-----------------------|----------------9----|----------------------|
--10------9------------|---------------------|--10------9-----------|
-----------------11----|---------------------|----------------------|


                                                                    
---------------------|-----------------------|---------------------|
---------------------|-----------------------|---------------------|
--9------8-----------|-----------------------|--9------8-----------|
----------------9----|-----------------------|----------------9----|
---------------------|--10------9------------|---------------------|
---------------------|-----------------11----|---------------------|


                                                  
----------------------|--------------------------|
-----------------8----|--------------------------|
----------------------|--------------------0-----|
----------------------|--------5--------8-----8--|
--10------9-----------|-----7--------7-----------|
----------------------|--0--------0--------------|


                                                           
-------------------------------|--------------------------|
-------------------------------|--------------------------|
-----------------------11------|--------------------0-----|
---------9---------10------10--|--------5--------8-----8--|
-----10--------12--------------|-----7--------7-----------|
--0---------0------------------|--0--------0--------------|


                                                         
-----------------------------|--------------------------|
-----------------------------|--------------------------|
-----------------------11~---|--------------------0-----|
---------9---------10--------|--------5--------9-----8--|
-----10--------12------------|-----7--------7-----------|
--0---------0----------------|--0--------0--------------|


                                                           
-------------------------------|--------------------------|
-------------------------------|--------------------------|
-----------------------11------|--------------------------|
---------9---------10------10--|--------5--------5--------|
-----10--------12--------------|-----5--------5-----------|
--0---------0------------------|--7--------6--------3--2--|


                                                      
--------------------------|--------------------------|
--------------------------|--------------------------|
--------------------------|--------------------------|
--2--0--2--4--5--4--5--7--|--------5--------5--------|
--2--0--2--4--5--4--5--7--|-----5--------5-----------|
--0-----------------------|--7--------6--------3--2--|


                                                      
--------------------------|--------------------------|
--------------------------|--------------------------|
--------------------------|--------------------------|
--2--0--2--4--5--4--5--7--|--------5--------5--------|
--2--0--2--4--5--4--5--7--|-----5--------5-----------|
--0-----------------------|--7--------6--------3--2--|


                                                                          
--------------------------|--------------------------|-------------------|
--------------------------|--------------------------|-------------------|
--------------------------|--------------------------|-------------------|
--2--0--2--4--5--4--5--7--|--------5--------5--------|--2----------------|
--2--0--2--4--5--4--5--7--|-----5--------5-----------|--2----------------|
--0-----------------------|--7--------6--------3--2--|--0----------------|


                                                                            
------------------|------------------|------------------|------------------|
------------------|------------------|------------------|------------------|
------------------|------------------|------------------|------------------|
------------------|------------------|------------------|------------------|
------------------|------------------|------------------|------------------|
------------------|------------------|------------------|------------------|


                                                                               
------------------|------------------|------------------|--------------------||
------------------|------------------|------------------|--------------------||
------------------|------------------|------------------|--------------2/---*||
------------------|------------------|------------------|-------------------*||
------------------|------------------|------------------|--------------------||
------------------|------------------|------------------|--------------------||


                                                                     
-------------------|-----------------------|------------------------|
-------------------|-----------------------|------------------------|
-------------------|-----------------------|------------------------|
--2----------------|----------2--2------3--|------------------------|
--2----------------|----------2--2------3--|------3--3--3--3--3--3--|
--0----------------|----------0-----0-0-1--|------1--1--1--1--1--1--|


                                                                               
---------------------------|-----------------------|--------------------------|
---------------------------|-----------------------|--------------------------|
---------------------------|------------4----------|--------------------------|
------------------------2--|------------4----------|-----------------------3--|
--3--3--3--3-----2------2--|------------2----------|----------------2------3--|
--1--1--1--1--0-----0-0-0--|------0--0-------0--0--|--0-0-3------0-----0-0-1--|


                                                                             
------------------------|---------------------------|-----------------------|
------------------------|---------------------------|-----------------------|
------------------------|---------------------------|------------4----------|
------------------------|------------------------2--|------------4----------|
------3--3--3--3--3--3--|--3--3--3--3-----2------2--|------------2----------|
------1--1--1--1--1--1--|--1--1--1--1--0-----0-0-0--|------0--0-------0--0--|


                                                                                
--------------------------|------------------------|---------------------------|
--------------------------|------------------------|---------------------------|
--------------------------|------------------------|---------------------------|
-----------------------3--|------------------------|------------------------2--|
----------------2------3--|------3--3--3--3--3--3--|--3--3--3--3-----2------2--|
--0-0-3------0-----0-0-1--|------1--1--1--1--1--1--|--1--1--1--1--0-----0-0-0--|


                                                                            
-----------------------|--------------------------|------------------------|
-----------------------|--------------------------|------------------------|
------------4----------|--------------------------|------------------------|
------------4----------|-----------------------3--|------------------------|
------------2----------|----------------2------3--|------3--3--3--3--3--3--|
------0--0-------0--0--|--0-0-3------0-----0-0-1--|------1--1--1--1--1--1--|


                                                                               
---------------------------|-----------------------|--------------------------|
---------------------------|-----------------------|--------------------------|
---------------------------|------------4----------|--------------------------|
------------------------2--|------------4----------|-----------------------3--|
--3--3--3--3-----2------2--|------------2----------|----------------2------3--|
--1--1--1--1--0-----0-0-0--|------0--0-------0--0--|--0-0-3------0-----0-0-1--|


                                                                             
------------------------|---------------------------|-----------------------|
------------------------|---------------------------|-----------------------|
------------------------|---------------------------|------------4----------|
------------------------|------------------------2--|------------4----------|
------3--3--3--3--3--3--|--3--3--3--3-----2------2--|------------2----------|
------1--1--1--1--1--1--|--1--1--1--1--0-----0-0-0--|------0--0-------0--0--|


                                                                                
--------------------------|------------------------|---------------------------|
--------------------------|------------------------|---------------------------|
--------------------------|------------------------|---------------------------|
-----------------------3--|------------------------|------------------------2--|
----------------2------3--|------3--3--3--3--3--3--|--3--3--3--3-----2------2--|
--0-0-3------0-----0-0-1--|------1--1--1--1--1--1--|--1--1--1--1--0-----0-0-0--|


                                                                            
-----------------------|--------------------------|------------------------|
-----------------------|--------------------------|------------------------|
------------4----------|--------------------------|------------------------|
------------4----------|-----------------------3--|------------------------|
------------2----------|----------------2------3--|------3--3--3--3--3--3--|
------0--0-------0--0--|--0-0-3------0-----0-0-1--|------1--1--1--1--1--1--|


                                                                               
---------------------------|-----------------------|--------------------------|
---------------------------|-----------------------|--------------------------|
---------------------------|------------4----------|--------------------------|
------------------------2--|------------4----------|-----------------------3--|
--3--3--3--3-----2------2--|------------2----------|----------------2------3--|
--1--1--1--1--0-----0-0-0--|------0--0-------0--0--|--0-0-3------0-----0-0-1--|


                                                                     
------------------------|------------------------|------------------|
------------------------|------------------------|------------------|
------------------------|------------------------|------------------|
------------------------|------------------------|--------0-2-------|
------3--3--3--3--3--3--|--3--3--3--3-----2------|-----2---------3--|
------1--1--1--1--1--1--|--1--1--1--1--0-----0-0-|--0---------1-----|


                                                                            
------------------|------------------|------------------|------------------|
------------------|------------------|------------------|------------------|
------------------|------------------|------------------|------------------|
--------4------5--|--------0-2-------|--------4------5--|--------0-2-------|
-----4----4-------|-----2---------3--|-----4----4-------|-----2---------3--|
--2---------3-----|--0---------1-----|--2---------3-----|--0---------1-----|


                                                                            
------------------|------------------|------------------|------------------|
------------------|------------------|------------------|------------------|
------------------|------------------|------------------|------------------|
--------4------5--|--------0-2-------|--------4------5--|-----2--0-2-------|
-----4----4-------|-----2---------3--|-----4----4-------|---------------3--|
--2---------3-----|--0---------1-----|--2---------3-----|--0---------1-----|


                                                                            
------------------|------------------|------------------|------------------|
------------------|------------------|------------------|------------------|
------------------|------------------|------------------|------------------|
--------4------5--|-----2--0-2-------|--------4------5--|-----2--0-2-------|
-----4----4-------|---------------3--|-----4----4-------|---------------3--|
--2---------3-----|--0---------1-----|--2---------3-----|--0---------1-----|


                                                                            
------------------|------------------|------------------|------------------|
------------------|------------------|------------------|------------------|
------------------|------------------|------------------|------------------|
--------4------5--|-----2--0-2-------|--------4------5--|-----2--0-2-------|
-----4----4-------|---------------3--|-----4----4-------|---------------3--|
--2---------3-----|--0---------1-----|--2---------3-----|--0---------1-----|


                                                                            
------------------|------------------|------------------|------------------|
------------------|------------------|------------------|------------------|
------------------|------------------|------------------|------------------|
--------4------5--|-----2--0-2-------|--------4------5--|-----2--0-2-------|
-----4----4-------|---------------3--|-----4----4-------|---------------3--|
--2---------3-----|--0---------1-----|--2---------3-----|--0---------1-----|


                                                                             
------------------|------------------|------------------|-------------------|
------------------|------------------|------------------|-------------------|
------------------|------------------|------------------|--------7-9--------|
--------4------5--|-----2--0-2-------|--------4------5--|-----9---------10--|
-----4----4-------|---------------3--|-----4----4-------|--7---------8------|
--2---------3-----|--0---------1-----|--2---------3-----|-------------------|


                                                                    
-----------------------|-------------------|-----------------------|
-----------------------|-------------------|-----------------------|
---------11--------12--|--------7-9--------|---------11--------12--|
-----11-----11---------|-----9---------10--|-----11-----11---------|
--9------------10------|--7---------8------|--9------------10------|
-----------------------|-------------------|-----------------------|


                                                                      
------------------|------------------|------------------|------------|
--------0-0-------|--------0-0----0--|--------0-0----0--|---------0--|
--------9-9----8--|--------7-7----6--|--------5-5----4--|---------0--|
-----9--9-9----8--|-----7--7-7----6--|-----5--5-5----4--|--3------x--|
--7---------6-----|--5---------4-----|--3---------2-----|--1--1-1-0--|
------------------|------------------|------------------|------------|


                                                               
--------------|-----------------------|-----------------------|
--------------|-----------------------|-----------------------|
--------------|-----------------------|-----------------------|
--------------|-----------------------|-----------------------|
--9--7--5--4--|--2--------9--7--5--4--|--3--------9--7--5-----|
--7--5--3--2--|--0--------7--5--3--2--|--1--------7--5--3--0--|


                                                                         
------------------------|-----------------------|-----------------------|
------------------------|-----------------------|-----------------------|
------------------------|-----------------------|-----------------------|
------------------------|-----------------------|-----------------------|
--3--4------9--7--5--7--|--5--------9--7--5--4--|--2--------9--7--5--4--|
--1--2------7--5--3--5--|--3--------7--5--3--2--|--0--------7--5--3--2--|


                                                                         
-----------------------|------------------------|-----------------------|
-----------------------|------------------------|-----------------------|
-----------------------|------------------------|-----------------------|
-----------------------|------------------------|-----------------------|
--3--------9--7--5-----|--3--4------9--7--5--7--|--5--------9--7--5--4--|
--1--------7--5--3--0--|--1--2------7--5--3--5--|--3--------7--5--3--2--|


                                                                    
|---------------------------------|--------------------------------|
|---------------------------------|--------------------------------|
|*--------------------------------|--------------------------------|
|*--2--------2--------------------|--3--------3--------------------|
|---2--------2--------9--7--5--4--|--3--------3--------9--7--5--7--|
|---0--0--0--0--0--0--7--5--3--2--|--1--1--1--1--1--1--7--5--3--5--|


                                                                    
--------------------------------|---------------------------------||
--------------------------------|---------------------------------||
--------------------------------|--------------------------------*||
--------------------------------|--5--------5--------------------*||
--3/-4-----4--------9--7--5--7--|--5--------5--------9--7--5--4---||
--1/-2--2--2--2--2--7--5--3--5--|--3--3--3--3--3--0--7--5--3--2---||


                                                           
--------------------------------|-------------------------|
--------------------------------|-------------------------|
--------------------------------|-------------------------|
--5--------5--------------------|--3----------------------|
--5--------5--------9--7--5--4--|--3----------------------|
--3--3--3--3--3--0--7--5--3--2--|--1----1--1--1--1--1--1--|


                                                        
---------------------------|---------------------------|
---------------------------|---------------------------|
---------------------------|---------------------------|
------------------------2--|---------------------------|
-----------------2------2--|---------------------------|
--1--1--1--1--0-----0-0-0--|------0--0-0-0--0-0-0--0-0-|


                                                       
-----------------------------|------------------------|
-----------------------------|------------------------|
-----------------------------|------------------------|
--------------------------3--|------------------------|
-------------------2------3--|------------------------|
--0--0-0-0--0-0-0-----0-0-1--|------1--1--1--1--1--1--|


                                                        
---------------------------|---------------------------|
---------------------------|---------------------------|
---------------------------|---------------------------|
------------------------2--|---------------------------|
-----------------2------2--|---------------------------|
--1--1--1--1--0-----0-0-0--|------0--0-0-0--0-0-0--0-0-|


                                                       
-----------------------------|------------------------|
-----------------------------|------------------------|
-----------------------------|------------------------|
--------------------------3--|------------------------|
-------------------2------3--|------------------------|
--0--0-0-0--0-0-0-----0-0-1--|------1--1--1--1--1--1--|


                                                        
---------------------------|---------------------------|
---------------------------|---------------------------|
---------------------------|---------------------------|
------------------------2--|---------------------------|
-----------------2------2--|---------------------------|
--1--1--1--1--0-----0-0-0--|------0--0-0-0--0-0-0--0-0-|


                                                       
-----------------------------|------------------------|
-----------------------------|------------------------|
-----------------------------|------------------------|
--------------------------3--|------------------------|
-------------------2------3--|------------------------|
--0--0-0-0--0-0-0-----0-0-1--|------1--1--1--1--1--1--|


                                                        
---------------------------|---------------------------|
---------------------------|---------------------------|
---------------------------|---------------------------|
------------------------2--|---------------------------|
-----------------2------2--|---------------------------|
--1--1--1--1--0-----0-0-0--|------0--0-0-0--0-0-0--0-0-|


                                                                         
-----------------------------|------------------|-----------------------|
-----------------------------|------------------|-----------------------|
-----------------------------|------------------|-----------------------|
--------------------------3--|------------------|--------------------2--|
-------------------2------3--|------------------|-------------2------2--|
--0--0-0-0--0-0-0-----0-0-1--|------------------|----------0-----0-0-0--|


                                                                             
---------------------------|-----------------------------|------------------|
---------------------------|-----------------------------|------------------|
---------------------------|-----------------------------|------------------|
---------------------------|--------------------------3--|------------------|
---------------------------|-------------------2------3--|------------------|
------0--0-0-0--0-0-0--0-0-|--0--0-0-0--0-0-0-----0-0-1--|------------------|


                                                    
-----------------------|---------------------------|
-----------------------|---------------------------|
-----------------------|---------------------------|
--------------------2--|---------------------------|
-------------2------2--|---------------------------|
----------0-----0-0-0--|------0--0-0-0--0-0-0--0-0-|


                                                                         
-----------------------------|------------------|-----------------------|
-----------------------------|------------------|-----------------------|
-----------------------------|------------------|-----------------------|
--------------------------3--|------------------|--------------------2--|
-------------------2------3--|------------------|-------------2------2--|
--0--0-0-0--0-0-0-----0-0-1--|------------------|----------0-----0-0-0--|


                                                                             
---------------------------|-----------------------------|------------------|
---------------------------|-----------------------------|------------------|
---------------------------|-----------------------------|------------------|
---------------------------|--------------------------3--|------------------|
---------------------------|-------------------2------3--|------------------|
------0--0-0-0--0-0-0--0-0-|--0--0-0-0--0-0-0-----0-0-1--|------------------|


                                                           
-----------------------|----------------------------------|
-----------------------|----------------------------------|
--------------------9--|----------------------------------|
--------------------9--|----------------------------------|
-------------2------7--|----------------------------------|
----------0-----0-0-0--|--0-0-0-0-7-7-0-0-0-0-6-6-0-0-0-0-|


                                                                
----------------------------|----------------------------------|
----------------------------|----------------------------------|
----------------------------|----------------------------------|
--------------9----8--------|----------------------------------|
--------------7----6--9--8--|----------------------------------|
--7-7-0-0-0-0---------7--6--|--0-0-0-0-7-7-0-0-0-0-6-6-0-0-0-0-|


                                                                
----------------------------|----------------------------------|
----------------------------|----------------------------------|
----------------------------|----------------------------------|
--------------9----8--------|----------------------------------|
--------------7----6--9--8--|----------------------------------|
--7-7-0-0-0-0---------7--6--|--0-0-0-0-7-7-0-0-0-0-6-6-0-0-0-0-|


                                                                
----------------------------|----------------------------------|
----------------------------|----------------------------------|
----------------------------|----------------------------------|
--------------9----8--------|----------------------------------|
--------------7----6--9--8--|----------------------------------|
--7-7-0-0-0-0---------7--6--|--0-0-0-0-7-7-0-0-0-0-6-6-0-0-0-0-|


                                                                
----------------------------|----------------------------------|
----------------------------|----------------------------------|
----------------------------|----------------------------------|
--------------9----8--------|----------------------------------|
--------------7----6--9--8--|----------------------------------|
--7-7-0-0-0-0---------7--6--|--0-0-0-0-7-7-0-0-0-0-6-6-0-0-0-0-|


                                                                
----------------------------|----------------------------------|
----------------------------|----------------------------------|
----------------------------|----------------------------------|
--------------9----8--------|----------------------------------|
--------------7----6--9--8--|----------------------------------|
--7-7-0-0-0-0---------7--6--|--0-0-0-0-7-7-0-0-0-0-6-6-0-0-0-0-|


                                                                
----------------------------|----------------------------------|
----------------------------|----------------------------------|
----------------------------|----------------------------------|
--------------9----8--------|----------------------------------|
--------------7----6--9--8--|----------------------------------|
--7-7-0-0-0-0---------7--6--|--0-0-0-0-7-7-0-0-0-0-6-6-0-0-0-0-|


                                                                
----------------------------|----------------------------------|
----------------------------|----------------------------------|
----------------------------|----------------------------------|
--------------9----8--------|----------------------------------|
--------------7----6--9--8--|----------------------------------|
--7-7-0-0-0-0---------7--6--|--0-0-0-0-7-7-0-0-0-0-6-6-0-0-0-0-|


                                                              
----------------------------|--------------------------------|
----------------------------|--------------------------------|
----------------------------|--------------------------------|
--------------9----8--------|--------------------------------|
--------------7----6--9--8--|--7-5-----8------7-5-----8------|
--7-7-0-0-0-0---------7--6--|------7-5-6--x-x-----7-5-6--x-x-|


                                                                  
------------------------------|----------------------------------|
------------------------------|----------------------------------|
------------------------------|----------------------------------|
------------------------------|----------------------------------|
--7-5-----8------7-5-----5----|----------------------------------|
------7-5-6--x-x-----7-5-3----|--0-0-0-0-7-7-0-0-0-0-6-6-0-0-0-0-|


                                                                
----------------------------|----------------------------------|
----------------------------|----------------------------------|
----------------------------|----------------------------------|
--------------9----8--------|----------------------------------|
--------------7----6--9--8--|----------------------------------|
--7-7-0-0-0-0---------7--6--|--0-0-0-0-7-7-0-0-0-0-6-6-0-0-0-0-|


                                                              
----------------------------|--------------------------------|
----------------------------|--------------------------------|
----------------------------|--------------------------------|
--------------9----8--------|--------------------------------|
--------------7----6--9--8--|--7-5-----8------7-5-----8------|
--7-7-0-0-0-0---------7--6--|------7-5-6--x-x-----7-5-6--x-x-|


                                                                  
------------------------------|----------------------------------|
------------------------------|----------------------------------|
------------------------------|----------------------------------|
------------------------------|----------------------------------|
--7-5-----8------7-5-----5----|----------------------------------|
------7-5-6--x-x-----7-5-3----|--0-0-0-0-7-7-0-0-0-0-6-6-0-0-0-0-|


                                                                
----------------------------|----------------------------------|
----------------------------|----------------------------------|
----------------------------|----------------------------------|
--------------9----8--------|----------------------------------|
--------------7----6--9--8--|----------------------------------|
--7-7-0-0-0-0---------7--6--|--0-0-0-0-7-7-0-0-0-0-6-6-0-0-0-0-|


                                                              
----------------------------|--------------------------------|
----------------------------|--------------------------------|
----------------------------|--------------------------------|
--------------9----8--------|--------------------------------|
Composição de Dave Mustaine
Colaboração e revisão:
  • marcos rolim
5.007 exibições
    • ½ Tom
    • A
    • Bb
    • B
    • C
    • Db
    • D
    • Eb
    • E
    • F
    • F#
    • G
    • Ab
  • Adicionar à lista

    0 comentários

    Ver todos os comentários

    Conseguiu tocar?

    1 Tocaram 0 Ainda não

    Grave um vídeo tocando Five Magics e nos envie!

    00:00 / 00:00
    outros vídeos desta música
    repetir qualidade Automático
    Outros vídeos desta música
    00:00 / 00:00
    Automático

    Cifra Club Pro

    Aproveite o Cifra Club com benefícios exclusivos e sem anúncios
    Cifra Club Pro
    Aproveite o Cifra Club com benefícios exclusivos e sem anúncios
    OK