Cifra Club

Aprenda

Hangar 18

Megadeth

Cifra: Principal (violão e guitarra)
tom: A

 Introdução Parte A - Guitarra 1 e 2



E|--1--1--1--1--1--1--1--1--1--1--1--1--1--1--1--1-------------|
B|--3--3--3--3--3--3--3--3--3--3--3--3--3--3--3--3-------------|
G|--2--2--2--2--2--2--2--2--2--2--2--2--2--2--2--2-------------|
D|-------------------------------------------------------------|
A|-------------------------------------------------------------|
E|-------------------------------------------------------------|

E|--1--1--1--1--1--1--1--1--1--1--1--1--1--1--1--1-------------|
B|--3--3--3--3--3--3--3--3--3--3--3--3--3--3--3--3-------------|
G|--3--3--3--3--3--3--3--3--3--3--3--3--3--3--3--3-------------|
D|-------------------------------------------------------------|
A|-------------------------------------------------------------|
E|-------------------------------------------------------------|

E|--1--1--1--1--1--1--1--1--1--1--1--1--1--1--1--1-------------|
B|--3--3--3--3--3--3--3--3--3--3--3--3--3--3--3--3-------------|
G|--4--4--4--4--4--4--4--4--4--4--4--4--4--4--4--4-------------|
D|-------------------------------------------------------------|
A|-------------------------------------------------------------|
E|-------------------------------------------------------------|

E|--5--5--5--5--5--5--5--5--5--5--5--5--5--5--5--5-------------|
B|--3--3--3--3--3--3--3--3--3--3--3--3--3--3--3--3-------------|
G|--5--5--5--5--5--5--5--5--5--5--5--5--5--5--5--5-------------|
D|-------------------------------------------------------------|
A|-------------------------------------------------------------|
E|-------------------------------------------------------------|

E|--5--5--5--5--5--5--5--5--5--5--5--5--5--5--5--5-------------|
B|--6--6--6--6--6--6--6--6--6--6--6--6--6--6--6--6-------------|
G|--7--7--7--7--7--7--7--7--7--7--7--7--7--7--7--7-------------|
D|-------------------------------------------------------------|
A|-------------------------------------------------------------|
E|-------------------------------------------------------------|

E|--6--6--6--6--6--6--6--6--6--6--6--6--6--6--6--6-------------|
B|--6--6--6--6--6--6--6--6--6--6--6--6--6--6--6--6-------------|
G|--7--7--7--7--7--7--7--7--7--7--7--7--7--7--7--7-------------|
D|-------------------------------------------------------------|
A|-------------------------------------------------------------|
E|-------------------------------------------------------------|

E|--7--7--7--7--7--7--7--7--7--7--7--7--7--7--7--7-------------|
B|--6--6--6--6--6--6--6--6--6--6--6--6--6--6--6--6-------------|
G|--7--7--7--7--7--7--7--7--7--7--7--7--7--7--7--7-------------|
D|-------------------------------------------------------------|
A|-------------------------------------------------------------|
E|-------------------------------------------------------------|

E|--8--8--8--8--8--8--8--8--8--8--8--8--8--8--8--8-------------|
B|--8--8--8--8--8--8--8--8--8--8--8--8--8--8--8--8-------------|
G|--9--9--9--9--9--9--9--9--9--9--9--9--9--9--9--9-------------|
D|-------------------------------------------------------------|
A|-------------------------------------------------------------|
E|-------------------------------------------------------------|

E|----1---5-----------1--6------------1--7----------5--8-------|
B|--3-------6-------3------6--------3------6------3------8-----|
G|2-----5/----7---3----3/----7----4----4/----7--5----5/----9---|
D|--------------0--------------0--------------0--------------0-|
A|-------------------------------------------------------------|
E|-------------------------------------------------------------|

E|----1---5-----------1--6------------1--7----------5--8-------|
B|--3-------6-------3------6--------3------6------3------8-----|
G|2-----5/----7---3----3/----7----4----4/----7--5----5/----9---|
D|--------------0--------------0--------------0--------------0-|
A|-------------------------------------------------------------|
E|-------------------------------------------------------------|


 Introdução Parte b - Guitarra 1 




E|-5-----------------------------------------------------------|
B|---8-6-5-----------------------------------------------------|
G|---------7-5-----7-----/10-----7-----/10-----7-----/10-------|
D|-------------8-7---0-0-----0-0---0-0-----0-0---0-0-----0-0---|
A|-------------------------------------------------------------|
E|-------------------------------------------------------------|

E|-------------------------------------------------------------|
B|-------------------------------------------------------------|
G|-9-----/12-----7-----/10-----7-----/10-----7-----/10---------|
D|---0-0-----0-0---0-0-----0-0---0-0-----0-0---0-0-------------|
A|-------------------------------------------------------------|
E|-------------------------------------------------------------|

E|-------------------------------------------------------------|
B|-------------------------------------------------------------|
G|-----9-----/12-----------------------------------------------|
D|-0-0---0-0---------------------------------------------------|
A|-------------------------------------------------------------|
E|-------------------------------------------------------------|




 Introdução Parte b - Guitarra 2



E|-------------------------------------------------------------|
B|-------------------------------------------------------------|
G|-10-9-7-------------2-----/7-----3-----/7-----4-----/7-------|
D|--------10-8-7--------0-0----0-0---0-0----0-0---0-0----0-0---|
A|---------------10-8------------------------------------------|
E|-------------------------------------------------------------|

E|-------------------------------------------------------------|
B|-------------------------------------------------------------|
G|-5-----/7-----2-----/7-----3-----/7-----4-----/7-----5-----/7|
D|---0-0----0-0---0-0----0-0---0-0----0-0---0-0----0-0---0-0---|
A|-------------------------------------------------------------|
E|-------------------------------------------------------------|





 2ª Parte



 Verso 1 - Guitarra 1



E|-------------------------------------------------------------|
B|-------------------------------------------------------------|
G|-7-----/10-----7-----/10-----7-----/10-----9-----/12---------|
D|---0-0-----0-0---0-0-----0-0---0-0-----0-0---0-0-----0-0-----|
A|-------------------------------------------------------------|
E|-------------------------------------------------------------|

E|-------------------------------------------------------------|
B|-------------------------------------------------------------|
G|-7-----/10-----7-----/10-----7-----/10-----9-----/12---------|
D|---0-0-----0-0---0-0-----0-0---0-0-----0-0---0-0-----0-0-----|
A|-------------------------------------------------------------|
E|-------------------------------------------------------------|

E|-------------------------------------------------------------|
B|-------------------------------------------------------------|
G|-7-----/10-----7-----/10-----7-----/10-----9-----/12---------|
D|---0-0-----0-0---0-0-----0-0---0-0-----0-0---0-0-----0-0-----|
A|-------------------------------------------------------------|
E|-------------------------------------------------------------|

E|-------------------------------------------------------------|
B|-------------------------------------------------------------|
G|-10\7-----10\7-----10\7-----10-9-9---------------------------|
D|------0-0------0-0------0-0----------------------------------|
A|-------------------------------------------------------------|
E|-------------------------------------------------------------|




 Verso 1 - Guitarra 2




E|-------------------------------------------------------------|
B|-------------------------------------------------------------|
G|-2-----/7-----3-----/7-----4-----/7-----5-----/7-------------|
D|---0-0----0-0---0-0----0-0---0-0----0-0---0-0----0-0---------|
A|-------------------------------------------------------------|
E|-------------------------------------------------------------|

E|-------------------------------------------------------------|
B|-------------------------------------------------------------|
G|-2-----/7-----3-----/7-----4-----/7-----5-----/7-------------|
D|---0-0----0-0---0-0----0-0---0-0----0-0---0-0----0-0---------|
A|-------------------------------------------------------------|
E|-------------------------------------------------------------|

E|-------------------------------------------------------------|
B|-------------------------------------------------------------|
G|-2-----/7-----3-----/7-----4-----/7-----5-----/7-------------|
D|---0-0----0-0---0-0----0-0---0-0----0-0---0-0----0-0---------|
A|-------------------------------------------------------------|
E|-------------------------------------------------------------|

E|-------------------------------------------------------------|
B|-------------------------------------------------------------|
G|-7\2-----7\3-----7\4-----7-5-5-------------------------------|
D|-----0-0-----0-0-----0-0-------------------------------------|
A|-------------------------------------------------------------|
E|-------------------------------------------------------------|



 Solo 1 e 2 - Guitarra 2




E|-----------------------------------------15-17/20-17h20p17---|
B|-15b17r15b17r15b17--b17-b18r----13----13---------------------|
G|-----------------------------14----14------------------------|
D|-------------------------------------------------------------|
A|-------------------------------------------------------------|
E|-------------------------------------------------------------|

E|----17-------------------------------------------------------|
B|-20----20b22-18h20p18-18b20----------------------------------|
G|----------------------------19-10-----10---10-------12-------|
D|-------------------------------------------------------------|
A|----------------------------------8-8----8----10-10----10-10-|
E|-------------------------------------------------------------|

E|-------------------------------------------------------------|
B|-------------------------------------------------------------|
G|-12----12-----10-----10---10-----9-----9---9-----------------|
D|-------------------------------------------------------------|
A|----10----8-8----8-8----8----7-7---7-7---7-------------------|
E|-------------------------------------------------------------|

E|-17p13----------------13-17p13-17p13-17p13----13-------------|
B|-------15----------15----------------------15----------------|
G|----------14----14-------------------------------------------|
D|-------------15----------------------------------------------|
A|-------------------------------------------------------------|
E|-------------------------------------------------------------|

E|-18p13----------------13-18p13-15p13-13p12-------17p13-------|
B|-------15----------15----------------------15-13-------15----|
G|----------15----15-------------------------------------------|
D|-------------15----------------------------------------------|
A|-------------------------------------------------------------|
E|-------------------------------------------------------------|

 e|16p13---16-16b18-18r16p13--20b22r20b22--22r20p17--22b24r22b24|
B|-----15------------------------------------------------------|
G|-------------------------------------------------------------|
D|-------------------------------------------------------------|
A|-------------------------------------------------------------|
E|-------------------------------------------------------------|

E|-------------------------------------------------------------|
B|-------------------------------------------------------------|
G|-----10-----10---10-------12-------12----12-----10-----10--10|
D|-------------------------------------------------------------|
A|-8-8----8-8----8----10-10----10-10----10----8-8----8-8----8--|
E|-------------------------------------------------------------|




 Bases dos solos 1 e 2 - Guitarra 1




E|-------------------------------------------------------------|
B|-------------------------------------------------------------|
G|-------------------------------------------------------------|
D|-----7-----7---7-----8-----8---8-----9-----9---9-----8-----8-|
A|---5-----5---------5-----5---------6-----6---------5-----5---|
E|-5-----5-----5---6-----6-----6---7-----7-----7---6-----6-----|

E|-------------------------------------------------------------|
B|-------------------------------------------------------------|
G|-------------------------------------------------------------|
D|---8-----7-----7---7-----8-----8---8-----9-----9---9---------|
A|-------5-----5---------5-----5---------6-----6---------------|
E|-6---5-----5-----5---6-----6-----6---7-----7-----7-----------|

E|-------------------------------------------------------------|
B|-------------------------------------------------------------|
G|-------------------------------------------------------------|
D|-----10-----10---10-----7-----7---7-----8-----8---8----------|
A|---7------7-----------5-----5---------5-----5----------------|
E|-8------8------8----5-----5-----5---6-----6-----6------------|
 



E|-------------------------------------------------------------|
B|-------------------------------------------------------------|
G|-------------------------------------------------------------|
D|-----9-----9---9-----8-----8---8-----7-----7---7-----8-----8-|
A|---6-----6---------5-----5---------5-----5---------5-----5---|
E|-7-----7-----7---6-----6-----6---5-----5-----5---6-----6-----|

E|-------------------------------------------------------------|
B|-------------------------------------------------------------|
G|-------------------------------------------------------------|
D|---8-----9-----9---9-----------------------------------------|
A|-------6-----6-----------------------------------------------|
E|-6---7-----7-----7-------------------------------------------|





 Conclusão da 2ª Parte - Guitarra 1





E|-5-----------------------------------------------------------|
B|---8-6-5-6-8-6-5---6-5------5--------------------------------|
G|-----------------7------7-5---7-5---7-----/10-----7-----/10--|
D|----------------------------------8---0-0-----0-0---0-0------|
A|-------------------------------------------------------------|
E|-------------------------------------------------------------|

E|-------------------------------------------------------------|
B|-------------------------------------------------------------|
G|-----7-----/10-----9-----/12-----7-----/10-----7-----/10-----|
D|-0-0---0-0-----0-0---0-0-----0-0---0-0-----0-0---0-0-----0-0-|
A|-------------------------------------------------------------|
E|-------------------------------------------------------------|

E|-------------------------------------------------------------|
B|-------------------------------------------------------------|
G|-7-----/10-----9-----/12-------------------------------------|
D|---0-0-----0-0---0-0-----0-0---------------------------------|
A|-------------------------------------------------------------|
E|-------------------------------------------------------------|




 Conclusão da 2ª Parte - Guitarra 2




E|-------------------------------------------------------------|
B|-------------------------------------------------------------|
G|-10-9-------9-------------------------------2-----/7---------|
D|------12-10---12-10-9-12-10-9----10-9---------0-0----0-0-----|
A|------------------------------12------12-10------------------|
E|-------------------------------------------------------------|

E|-------------------------------------------------------------|
B|-------------------------------------------------------------|
G|-3-----/7-----4-----/7-----5-----/7-----2-----/7-----3-----/7|
D|---0-0----0-0---0-0----0-0---0-0----0-0---0-0----0-0---0-0---|
A|-------------------------------------------------------------|
E|-------------------------------------------------------------|

E|-------------------------------------------------------------|
B|-------------------------------------------------------------|
G|-----4-----/7-----5-----/7-----------------------------------|
D|-0-0---0-0----0-0---0-0----0-0-------------------------------|
A|-------------------------------------------------------------|
E|-------------------------------------------------------------|




3ª pARTE




 Solo 3 e 4 - Guitarra 2



E|-------------------------------------------------------------|
B|-/15----15-17-17b18r17b18-19r17----15----18b20r18b20r18b20---|
G|-------------------------------------------------------------|
D|-------------------------------------------------------------|
A|-------------------------------------------------------------|
E|-------------------------------------------------------------|

E|-------------------------------------------------------------|
B|-15h18p15h18p15----------------------------------------------|
G|-----------------17b19------10-----10---10-------12-------12-|
D|-------------------------------------------------------------|
A|------------------------8-8----8-8----8----10-10----10-10----|
E|-------------------------------------------------------------|

E|-------------------------------------------------------------|
B|-------------------------------------------------------------|
G|----12-----10-----10---10-----9-----9---9--------------------|
D|-------------------------------------------------------------|
A|-10----8-8----8-8----8----7-7---7-7---7----------------------|
E|-------------------------------------------------------------|

E|---------------------17-18---------------17-19-16------------|
 B|20b22-20-18-17------------------17-18-21----------18-15------|
G|---------------17---------17-19-------------------------16---|
D|------------------17---------------------------------------18|
A|-------------------------------------------------------------|
E|-------------------------------------------------------------|

E|-------------16--20b22r20-20b22r20b22r20---------------------|
B|----16----18-------------------------------------------------|
G|-15----19-------------------------------------10-----10---10-|
D|-------------------------------------------------------------|
A|------------------------------------------8-8----8-8----8----|
E|-------------------------------------------------------------|

E|-------------------------------------------------------------|
B|-------------------------------------------------------------|
G|-------12-------12----12-----10-----10---10-----9-----9---9--|
D|-------------------------------------------------------------|
A|-10-10----10-10----10----8-8----8-8----8----7-7---7-7---7----|
E|-------------------------------------------------------------|

E|----------------------9-13p9---------------------------------|
B|-----------------9h12--------12------------------------------|
G|--------------10---------------------------------------------|
D|---------9h11------------------------------------------------|
A|------11-----------------------------------------------------|
E|-9h13--------------------------------------------------------|





 Bases dos solos 3 e 4 - Guitarra 1




E|-------------------------------------------------------------|
B|-------------------------------------------------------------|
G|-------------------------------------------------------------|
D|-----7-----7---7-----8-----8---8-----9-----9---9-----8-----8-|
A|---5-----5---------5-----5---------6-----6---------5-----5---|
E|-5-----5-----5---6-----6-----6---7-----7-----7---6-----6-----|

E|-------------------------------------------------------------|
B|-------------------------------------------------------------|
G|-------------------------------------------------------------|
D|---8-----7-----7---7-----8-----8---8-----9-----9---9---------|
A|-------5-----5---------5-----5---------6-----6---------------|
E|-6---5-----5-----5---6-----6-----6---7-----7-----7-----------|

E|-------------------------------------------------------------|
B|-------------------------------------------------------------|
G|-------------------------------------------------------------|
D|-----10-----10---10-----7-----7---7-----8-----8---8----------|
A|---7------7-----------5-----5---------5-----5----------------|
E|-8------8------8----5-----5-----5---6-----6-----6------------|
 




E|-------------------------------------------------------------|
B|-------------------------------------------------------------|
G|-------------------------------------------------------------|
D|-----9-----9---9-----8-----8---8-----7-----7---7-----8-----8-|
A|---6-----6---------5-----5---------5-----5---------5-----5---|
E|-7-----7-----7---6-----6-----6---5-----5-----5---6-----6-----|

E|-------------------------------------------------------------|
B|-------------------------------------------------------------|
G|-------------------------------------------------------------|
D|---8-----9-----9---9-----10-----10---10-----11-----11---11---|
A|-------6-----6---------7------7-----------7------7-----------|
E|-6---7-----7-----7---8------8------8----9------9------9------|





 3ª PARTE



 Solo 5 - Guitarra 2



E|-------------------------------------------------------------|
B|----15----13----12/15\12--10----------10---------------------|
G|-----------------------------------10----11h12p11------------|
D|-12----10--------------------10h12----------------13-12------|
A|-------------14----------------------------------------------|
E|-------------------------------------------------------------|

E|----14/17\14-11--------10/14\10-------------------11-15-14---|
B|----------------13--------------13-------------13----------13|
G|-14-----------------11-------------14-------12---------------|
D|--------------------------------------12h13------------------|
A|-------------------------------------------------------------|
E|-------------------------------------------------------------|

E|----------------------------------17-14-14-14-15-11-11-14----|
B|-15----13-13b15r13b15r13b15r13b15----------------------------|
G|----14-------------------------------------------------------|
D|-------------------------------------------------------------|
A|-------------------------------------------------------------|
E|-------------------------------------------------------------|

E|-10-10-10-11-8-8-10-6-6-6-7-5-5-6-5h6p5---5------------------|
B|----------------------------------------8---8b10r8-----------|
G|-------------------------------------------------------------|
D|-------------------------------------------------------------|
A|-------------------------------------------------------------|
E|-------------------------------------------------------------|

E|-------------------------------------------------------------|
 B|8b10r8b10r8b10r--7h8h10p8p7---7h8p7-10h11h13p11p10---10h11p10|
G|----------------------------8----------------------12--------|
D|-------------------------------------------------------------|
A|-------------------------------------------------------------|
E|-------------------------------------------------------------|

E|----------------------------------------14-15-17-18-18b20----|
B|-13h15h16p15p13----13h15p13----13h15-16----------------------|
G|----------------15----------15-------------------------------|
D|-------------------------------------------------------------|
A|-------------------------------------------------------------|
E|-------------------------------------------------------------|





 Base do solo 5 - Guitarra 1



E|-------------------------------------------------------------|
B|-------------------------------------------------------------|
G|-7---------------------------7-------------------------------|
D|-------------------7-8-------------------------7-8-----------|
A|---5-5-5--5-8-5--5-5-6-----5---5-5-5--5-8-5--5-5-6-----------|
E|-------------------------------------------------------------|

E|-------------------------------------------------------------|
B|-------------------------------------------------------------|
G|---7---------------------------7-----------------------------|
D|-------------------7-8---------------------------6p5---------|
A|-5---5-5-5--5-8-5--5-6-------5---5-5-5--5-8-5--5-----8-5-----|
E|-------------------------------------------------------------|

E|-------------------------------------------------------------|
B|-------------------------------------------------------------|
G|-7---------------------------7-------------------------------|
D|-------------------7-8-------------------------7-8-----------|
A|---5-5-5--5-8-5--5-5-6-----5---5-5-5--5-8-5--5-5-6-----------|
E|-------------------------------------------------------------|

E|-------------------------------------------------------------|
B|-------------------------------------------------------------|
G|---7------------------------7--------------------------------|
D|---------------------7-8----------------6p5-----6p5----------|
A|-5---5-5-5--5-8-5--5-5-6--5---5-5-5--5------8-5-----8-5------|
E|-------------------------------------------------------------|





 Interlúdio 1 - Guitarra 1 e 2



E|-------------------------------------------------------------|
B|-------------------------------------------------------------|
G|-------------------------------------------------------------|
D|-------4-----------------5------------4----------------------|
A|------------------------------------------------3p2----------|
E|-0h1-2---2-2-5-2---2-3-3--------0h1-2---2-2-5-2-----5-2------|

E|-------------------------------------------------------------|
B|-------------------------------------------------------------|
G|---------------------------------------5-4-----6-5-----------|
D|-------4-----------------5-------4---------7-4-----8-5-------|
A|-------------------------------------------------------------|
E|-0h1-2---2-2-5-2---2-3-3---0h1-2---2-2-----------------------|





 Solo 6 - Guitarra 2



E|-----------------------------------14h15p14------------------|
B|-----------10-13-15-13-15----13-15----------15-13---/21\13---|
G|-----11-12----------------14----------------------14---------|
D|-/12---------------------------------------------------------|
A|-------------------------------------------------------------|
E|-------------------------------------------------------------|

E|-------------------------------------------------/15-11------|
B|-10h13p10--7h8p7\3b4r3--------7-10-9-10-7-8-7-----------13---|
G|-----------------------5--7/8-----------------8-7----------14|
D|-------------------------------------------------------------|
A|-------------------------------------------------------------|
E|-------------------------------------------------------------|

E|-------------------------------------------------------------|
B|---------13-16-------13-16-15h16p15-13h15p13-----------------|
G|11-13-14-------13-14------------------------15b17r15b17r15b17|
D|-------------------------------------------------------------|
A|-------------------------------------------------------------|
E|-------------------------------------------------------------|

E|-------------------------------------------------------------|
B|-10/13-13-13-13\12-12-12-12/20-20-20-20\19-19-19-19\13-13-13-|
G|-------------------------------------------------------------|
D|-------------------------------------------------------------|
A|-------------------------------------------------------------|
E|-------------------------------------------------------------|
 



E|-------------------------------------------------------------|
B|-13h15p13----13-12h13p12----12-10h12p10----10-8h10p8-7h8h10--|
G|----------14-------------13-------------12-------------------|
D|-------------------------------------------------------------|
A|-------------------------------------------------------------|
E|-------------------------------------------------------------|

 e|7h8-8h10-10h12p10-8h10p8-7h8p7--------------10---------------|
B|------------------------------10-8-7h8p7-10-----7--7---------|
G|----------------------------------------------9--9--9b11r9-7-|
D|-------------------------------------------------------------|
A|-------------------------------------------------------------|
E|-------------------------------------------------------------|




 Interlúdio 2 - Guitarras 1 e 2




E|-------------------------------------------------------------|
B|-------------------------------------------------------------|
G|-------------------------------------------------------------|
D|-------------------------------------------------------------|
A|-----------------4/5-4/5-4/5----------------------4/5-4/5-4/5|
E|-3-2-0-2-3-5-3-2-2/3-2/3-2/3------3-2-0-2-3-5-3-2-2/3-2/3-2/3|

E|-------------------------------------------------------------|
B|-------------------------------------------------------------|
G|-------------------------------------------------------------|
D|-------------------------------------------------------------|
A|-----------------4/5-4/5-4/5----------------------4/5-4/5-4/5|
E|-3-2-0-2-3-5-3-2-2/3-2/3-2/3------3-2-0-2-3-5-3-2-2/3-2/3-2/3|





4ª Parte



 Solo 7 -  Guitarra 2



E|--17-17-17-17-16-14----17-17-17-17-16-14----17-17-17-17-16-14|
B|-------------------------------------------------------------|
G|-------------------------------------------------------------|
D|-------------------------------------------------------------|
A|-------------------------------------------------------------|
E|-------------------------------------------------------------|

E|-17-17-17-17-16-14---17-17-17-17-16-14-----------------------|
B|-----------------------------------------17-17-17-17-16-14---|
G|-------------------------------------------------------------|
D|-------------------------------------------------------------|
A|-------------------------------------------------------------|
E|-------------------------------------------------------------|

E|-------------------------------------------------------------|
B|-------------------------------------------------------------|
G|16-16-16-16-14-----------------------------------------------|
D|--------------16-16-16-16-16-14h16p14h16p14h16p14h16p14h16p14|
A|-------------------------------------------------------------|
E|-------------------------------------------------------------|

E|-------------------------------------------------------------|
B|-------------------------------------------------14-14-14-14-|
G|-14h16p----14h16p-----14h16p14h16p14h16p14h16p14-------------|
D|--------16--------16-----------------------------------------|
A|-------------------------------------------------------------|
E|-------------------------------------------------------------|

E|-------------------------------14-14-14-14-16p14-17p14-16p14-|
B|-16p14-17p14-16p14-17p14-16p14-------------------------------|
G|-------------------------------------------------------------|
D|-------------------------------------------------------------|
A|-------------------------------------------------------------|
E|-------------------------------------------------------------|

E|-19p14-16p14-17p14-16p14--19b21r19-17--19b21-----------------|
B|-------------------------------------------------------------|
G|-------------------------------------------------------------|
D|-------------------------------------------------------------|
A|-------------------------------------------------------------|
E|-------------------------------------------------------------|




 Solo 8 -  Guitarra 2




E|----------------22b24-21-20-21----------------15-------------|
B|-20b22----17-------------------------------19----15----------|
G|-------18----18----------------18-14----------------17-14-13-|
D|-------------------------------------18-16-------------------|
A|-------------------------------------------------------------|
E|-------------------------------------------------------------|

E|-------------------------------------------------------------|
B|-----------------------------------14h17p14----14h17p14------|
G|--14----14h17p14h17p14h17p14h17p14----------17----------17---|
D|-------------------------------------------------------------|
A|-------------------------------------------------------------|
E|-------------------------------------------------------------|

E|-------------------------------------------------------------|
B|----------------------------14h17p14----14h17p14----14-17b19-|
G|-14h17p14h17p14h17p14h17p14----------17----------17----------|
D|-------------------------------------------------------------|
A|-------------------------------------------------------------|
E|-------------------------------------------------------------|




 Solo 9 -  Guitarra 2




E|-t22p14h17p14p17p14------------------------------------------|
B|--------------------t22p14h17p14p17p14-t22p14h17p14p17p14----|
G|-------------------------------------------------------------|
D|-------------------------------------------------------------|
A|-------------------------------------------------------------|
E|-------------------------------------------------------------|

E|-------------------------------------------------------------|
B|-------------------------------------------------------------|
G|-t22p14h17p14p17p14-t22p14h17p14p17p14-----------------------|
D|---------------------------------------t22p14h17p14p17p14----|
A|-------------------------------------------------------------|
E|-------------------------------------------------------------|

E|-------------------------------------------------------------|
B|-------------------------------------------------------------|
G|-------------------------------------------------------------|
D|-t22p14h17p14p17p14------------------------------------------|
A|--------------------t22p14h17p14p17p14-----------------------|
E|---------------------------------------t22p14h17p14p17p14----|

E|-------------------------------------------------------------|
B|-------------------------------------------------------------|
G|---------------------------------------t22p14h17p14p17p14----|
D|--------------------t22p14h17p14p17p14-----------------------|
A|-t22p14h17p14p17p14------------------------------------------|
E|-------------------------------------------------------------|

E|--------------------t22p14h17p14p17p14-----------------------|
B|-t22p14h17p14p17p14------------------------------------------|
G|-------------------------------------------------------------|
D|-------------------------------------------------------------|
A|----------------------------------------/18------------------|
E|-------------------------------------------------------------|





 Solo 10 -  Guitarra 2




E|-----------------------10p9---------14p10-12---12------------|
B|9-12-10p9----10p9-----------12-10-9----------14---13/14\10/14|
G|----------11------11-9---------------------------------------|
D|-------------------------------------------------------------|
A|-------------------------------------------------------------|
E|-------------------------------------------------------------|

E|----14h18p14h18p14h18p14h18p14h18p14h18p14h18p14h18p14-------|
B|-------------------------------------------------------------|
G|-------------------------------------------------------------|
D|-------------------------------------------------------------|
A|-------------------------------------------------------------|
E|-------------------------------------------------------------|

E|-------14----------------------------------------------------|
B|-16b18----17p14-------14-17p14-18p14-17p14------14-17p14-----|
G|----------------16b18----------------------16b14--------16b18|
D|-------------------------------------------------------------|
A|-------------------------------------------------------------|
E|-------------------------------------------------------------|

E|----------------------------------14-------------------------|
B|-14-17p14-18p14-17p14-------14h17----------------------------|
G|----------------------16b14----------17----------------------|
D|-------------------------------------------------------------|
A|-------------------------------------------------------------|
E|-------------------------------------------------------------|




 Solo 11 (final) - Guitarra 2




E|-2-5-4-2-----------5-8-7-5-----------8-11-10-8---------------|
B|---------5-3-2h3p2---------9-7-5h7p5------------11-10-8h10p8-|
G|-------------------------------------------------------------|
D|-------------------------------------------------------------|
A|-------------------------------------------------------------|
E|-------------------------------------------------------------|

E|-11-14-13-11----------------14-17-16-14----------------------|
B|-------------14-13-11h13p11-------------17-16-14h16p14-------|
G|-------------------------------------------------------------|
D|-------------------------------------------------------------|
A|-------------------------------------------------------------|
E|-------------------------------------------------------------|

E|-17-20-19-17----------------20-23-22-20----------------------|
B|-------------20-19-17h19p17-------------23-22-20h22p20\------|
G|-------------------------------------------------------------|
D|-------------------------------------------------------------|
A|-------------------------------------------------------------|
E|-------------------------------------------------------------|

E|--2/(tr)/24-----24b26--24b26--24b26--24b26-------------------|
B|-------------------------------------------------------------|
G|-------------------------------------------------------------|
D|-------------------------------------------------------------|
A|-------------------------------------------------------------|
E|-------------------------------------------------------------|

E|-24b26--24b26--24b26--24b26--24b26--24b26--24b26--24b26------|
B|-------------------------------------------------------------|
G|-------------------------------------------------------------|
D|-------------------------------------------------------------|
A|-------------------------------------------------------------|
E|-------------------------------------------------------------|

E|--24b26(tr)\-------------------------------------------------|
B|-------------------------------------------------------------|
G|-------------------------------------------------------------|
D|-------------------------------------------------------------|
A|--------------5-------------------4/5--4/5--4/5--4-----------|
E|--------------3---3-2-0-2-3-5-3-2-2/3--2/3--2/3--2-----------|
Composição de Dave Mustaine
Colaboração e revisão:
  • wesley SG
89.577 exibições
    • ½ Tom
    • A
    • Bb
    • B
    • C
    • Db
    • D
    • Eb
    • E
    • F
    • F#
    • G
    • Ab
  • Adicionar à lista

    0 comentários

    Ver todos os comentários

    Conseguiu tocar?

    9 Tocaram 1 Ainda não

    Grave um vídeo tocando Hangar 18 e nos envie!

    00:00 / 00:00
    outros vídeos desta música
    repetir qualidade Automático
    Outros vídeos desta música
    00:00 / 00:00
    Automático

    Cifra Club Pro

    Aproveite o Cifra Club com benefícios exclusivos e sem anúncios
    Cifra Club Pro
    Aproveite o Cifra Club com benefícios exclusivos e sem anúncios
    OK