Cifra Club

Aprenda

Poisonous Shadows

Megadeth

Cifra: Principal (violão e guitarra)
tom: C (forma dos acordes no tom de D) Afinação: D G C F A D
Intro com violão

D|--0---0---0--0-0-0--0--0--0--0------0--0--0--0-------0--0--0--0-0-0-|   8x
A|-0---0---0--0------0--0--0--0--0-0-0--0--0--0--0--0-0--0--0--0------|
F|9--10---9--4--7-2-4--5--4-----2-0------------------------2--4--5-7--|
C|---------------------------4------4--5--4-------2--4--5-------------|
G|-------------------------------------------4--5---------------------|
D|--------------------------------------------------------------------|

Guitarra Marca o violão e depois riff da introdução

D|----------------------|
A|----------------------|
F|----------------------|
C|----------------------|
G|-2-----3-----2-2--3-3-|
D|-0-----1-----0-0--1-1-|

Riff com abafado

 D5
  How much pain 
D5
 Do you need to feel
D5
 How much shame 
D5
 Do you have to conceal
D5
 There is no sunshine
D5
 Just endless nights
D5                       D5
 Nobody is there,  nobody cares when you cry


D5     A#5          G5
Is is my face you see
       A5                 D5
Do I haunt you in your sleep
          A#5                      G5                  A5
On your hands and knees wheen you crawl through your nightmares
D5            A#5
When there's no more grace
G5                  A5
 Does your heartbeat starts to race
D5             A#5            G5
Clawing everywhere in the dark
A5
Poisonous Shadows
Composição de Dave Mustaine / Kiko Loureiro
Colaboração e revisão:
  • Vinícius Gobbi
  • Leonardo Dutra
2.675 exibições
    • ½ Tom
    • A
    • Bb
    • B
    • C
    • Db
    • D
    • Eb
    • E
    • F
    • F#
    • G
    • Ab
  • Adicionar à lista

    0 comentários

    Ver todos os comentários

    Conseguiu tocar?

    2 Tocaram 0 Ainda não

    Grave um vídeo tocando Poisonous Shadows e nos envie!

    00:00 / 00:00
    outros vídeos desta música
    repetir qualidade Automático
    Outros vídeos desta música
    00:00 / 00:00
    Automático

    Cifra Club Pro

    Aproveite o Cifra Club com benefícios exclusivos e sem anúncios
    Cifra Club Pro
    Aproveite o Cifra Club com benefícios exclusivos e sem anúncios
    OK