Notificações Amigos pendentes

      Megadeth

      Problems

      325 exibições
      Tom: F#
      (afinação Eb)
      
      (riff 1)
      
      E|--------------------------------|
      B|--------------------------------|
      G|-7-7-7-5-5-5-5------5h7-5~------|
      D|-7-7-7-5-5-5-5-2--2-5h7-5~--7p5-|
      A|-5-5-5-3-3-3-3-0--0---------7p5-|
      E|--------------------------------|
      
      
      (riff 2)
      
      E|--------------------------------|
      B|--------------------------------|
      G|--------------------5h7-5~------|
      D|-7-7-7-5-5-5-5-2--2-5h7-5~--7p5-|
      A|-5-5-5-3-3-3-3-0--0---------7p5-|
      E|--------------------------------|
      
          * * * * * * *
         "Too many problems..."
      
      (riff 3)
      (guitar 1)
      
      E|---------------------------------|
      B|---------------------------------|
      G|-2-2-2-2-2-2-2-2-2-2-2-2-2-2-2-2-|
      D|-2-2-2-2-2-2-2-2-2-2-2-2-2-2-2-2-|
      A|-0-0-0-0-0-0-0-0-0-0-0-0-0-0-0-0-|
      E|---------------------------------|
      
      
      E|---------------------------------|
      B|---------------------------------|
      G|-4-4-4-4-4-4-4-4-4-4-4-4-4-4-4-4-|
      D|-4-4-4-4-4-4-4-4-4-4-4-4-4-4-4-4-|
      A|-2-2-2-2-2-2-2-2-2-2-2-2-2-2-2-2-|
      E|-2-2-2-2-2-2-2-2-2-2-2-2-2-2-2-2-|
      
      
      E|---------------------------------|
      B|---------------------------------|
      G|-5-5-5-5-5-5-5-5-5-5-5-5-5-5-5-5-|
      D|-5-5-5-5-5-5-5-5-5-5-5-5-5-5-5-5-|
      A|-3-3-3-3-3-3-3-3-3-3-3-3-3-3-3-3-|
      E|---------------------------------|
      
      
      (guitar 2)
      
      E|---------------------------------|
      B|-------------------3-3-3-3-2-2-2-|
      G|-2-2-2-2-2-2-2-2-2-2-2-2-2-2-2-2-|
      D|-2-2-2-2-2-2-2-2-2---------------|
      A|-0-0-0-0-0-0-0-0-0---------------|
      E|---------------------------------|
      
      
      E|---------------------------------|
      B|-----------------5-4-4-4-5-4-4-4-|
      G|-4-4-4-4-4-4-4-4-4-4-4-4-4-4-4-4-|
      D|-4-4-4-4-4-4-4-4-----------------|
      A|-2-2-2-2-2-2-2-2-----------------|
      E|-2-2-2-2-2-2-2-2-----------------|
      
      
      E|-----------------------8-----8----|
      B|------------------/5h6---5h6---6\-|
      G|-5-5-5-5-5-5-5-5------------------|
      D|-5-5-5-5-5-5-5-5------------------|
      A|-3-3-3-3-3-3-3-3------------------|
      E|----------------------------------|
      
      
      (riff 1)
      (riff 2)
      (riff 3   except use this for ending to guitar 2)
      
      E|-----------------------8-----8---------8-|
      B|------------------/5h6---5h6---5-(5)h6---|
      G|-5-5-5-5-5-5-5-5-------------------------|
      D|-5-5-5-5-5-5-5-5-------------------------|
      A|-3-3-3-3-3-3-3-3-------------------------|
      E|-----------------------------------------|
      
      
      (riff 1  "...you, what you going to do...")
      (riff 1  Solo Rhythm)
      
      (solo - Mustaine)
      
      E|-------17-17-------17-17-17-17-|
      B|-------17-17-------17-17-17-17-|
      G|-19b21-------19b21-------------|
      D|-------------------------------|
      A|-------------------------------|
      E|-------------------------------|
      
      
      E|-------17-17-------17-17-17-17-|
      B|-------17-17-------17-17-17-17-|
      G|-19b21-------19b21-------------|
      D|-------------------------------|
      A|-------------------------------|
      E|-------------------------------|
      
      
      E|-------17-17-------17-17-17-17-|
      B|-------17-17-------17-17-17-17-|
      G|-19b21-------19b21-------------|
      D|-------------------------------|
      A|-------------------------------|
      E|-------------------------------|
      
      
      E|-------17-17-------17-17----17-|
      B|-------17-17-------17-17-20-17-|
      G|-19b21-------19b21-------------|
      D|-------------------------------|
      A|-------------------------------|
      E|-------------------------------|
      
      
      E|-------17-17-------17-17-17-17-|
      B|-------17-17-------17-17-17-17-|
      G|-19b21-------19b21-------------|
      D|-------------------------------|
      A|-------------------------------|
      E|-------------------------------|
      
      
      E|-------17-17-------17-17----17-|
      B|-------17-17-------17-17-20-17-|
      G|-19b21-------19b21-------------|
      D|-------------------------------|
      A|-------------------------------|
      E|-------------------------------|
      
      
      E|-------------------------------|
      B|-------17-17-------17-17-20-17-|
      G|-19b21-------19b21-------------|
      D|-------------------------------|
      A|-------------------------------|
      E|-------------------------------|
      
      
      E|-------------------------------|
      B|-------17-17-------17-17-20-17-|
      G|-19b21-------19b21-------------|
      D|-------------------------------|
      A|-------------------------------|
      E|-------------------------------|
      
      
      E|----------------------------------------------|
      B|-17----17-17^-----17-17^-----17-17^-----19----|
      G|-17----17-17^-----17-17^-----17-17^-----19----|
      D|----19---------19---------19---------19----19-|
      A|----------------------------------------------|
      E|----------------------------------------------|
      
      
      E|----------------------------------------------|
      B|-17----17-17^-----17-17^-----17-17^-----19----|
      G|-17----17-17^-----17-17^-----17-17^-----19----|
      D|----19---------19---------19---------19----19-|
      A|----------------------------------------------|
      E|----------------------------------------------|
      
      
      E|-----------------------------------------------|
      B|-17----17-17^-----19----17----17-17^-----19----|
      G|-17----17-17^-----19----17----17-17^-----19----|
      D|----19---------19----19----19---------19----19-|
      A|-----------------------------------------------|
      E|-----------------------------------------------|
      
      
      E|--------------------------|
      B|-17----19----17----17-----|
      G|-17----19----17----17-19^-|
      D|----19----19----19--------|
      A|--------------------------|
      E|--------------------------|
      
      
      E|-17-17-------17-17-------17--------17---|
      B|-17-17-------17-17-------17--------17---|
      G|-------19b21-------19b21----19b21-(21)--|
      D|----------------------------------------|
      A|----------------------------------------|
      E|----------------------------------------|
      
      
      (riff 3   except use this for ending to guitar 2)
      
      E|-----------------------8-----8-----8----|
      B|------------------/5h6---5h6---5h6---6\-|
      G|-5-5-5-5-5-5-5-5------------------------|
      D|-5-5-5-5-5-5-5-5------------------------|
      A|-3-3-3-3-3-3-3-3------------------------|
      E|----------------------------------------|
      
      
      (riff 1  "...you, what you going to do?")
      (riff 2)
      
      (guitar fills over - riff 2)
      
      E|---------------------------|
      B|-10-10\--------/10-10-10\--|
      G|--9--9\--------/-9--9--9\--|
      D|---------------------------|
      A|---------------------------|
      E|---------------------------|
      
      
      E|---------------------------------------|
      B|---------------------------------------|
      G|-7--(7)b8--(8)r7\----7--(7)b8--(8)r7\--|
      D|-7--(7)b8--(8)r7\----7--(7)b8--(8)r7\--|
      A|---------------------------------------|
      E|---------------------------------------|
      
      
      E|-------------------------------------|
      B|-/10-10-10\--------------------------|
      G|-/-9--9--9\--------7--(7)b8--(8)r7\--|
      D|-------------------7--(7)b8--(8)r7\--|
      A|-------------------------------------|
      E|-------------------------------------|
      
      
      E|---------------------------------------|
      B|---------------------------------------|
      G|-7--(7)b8--(8)r7\----7--(7)b8--(8)r7\--|
      D|-7--(7)b8--(8)r7\----7--(7)b8--(8)r7\--|
      A|---------------------------------------|
      E|---------------------------------------|
      
      
      E|------------|
      B|------------|
      G|-5-7-5------|
      D|-5-7-5--7\--|
      A|--------7\--|
      E|------------|
      
      
      (riff 3   except use this for ending to guitar 2)
      
      E|-----------------------8-----8-----8----|
      B|------------------/5h6---5h6---5h6---6\-|
      G|-5-5-5-5-5-5-5-5------------------------|
      D|-5-5-5-5-5-5-5-5------------------------|
      A|-3-3-3-3-3-3-3-3------------------------|
      E|----------------------------------------|
      
      
      (riff 1  "...you, what you going to do?")
      
      (ending Rhythm)
      
      E|-----------------------------------|
      B|-----------------------------------|
      G|-----------------------------------|
      D|-2-----2-2--------2-----2-2--------|
      A|-0-0-0-0-0--0-0-0-0-0-0-0-0--0-0-0-|
      E|-----------------------------------|
      
            * *      * * *   * *      * * *
         "Problem, problem..."
      
      E|---------------------------------------|
      B|---------------------------------------|
      G|---------------------------------------|
      D|-2-------2-------2-----2----2--------2-|
      A|-0-0-0-0-0-0-0-0-0-0-0-0----0--------0-|
      E|---------------------------------------|
      
            * * *   * * *   * *
         "Problem, problem..."
      
      Ending lead:
      
      E|-----5-5-----5-5-5-5-----5-5-----5-5-5-5-|
      B|-----5-5-----5-5-5-5-----5-5-----5-5-5-5-|
      G|-7b9-----7b9---------7b9-----7b9---------|
      D|-----------------------------------------|
      A|-----------------------------------------|
      E|-----------------------------------------|
      
      
      (final time)
      
      E|-----5-5-----5-5-5-5-----5-5--5----|
      B|-----5-5-----5-5-5-5-----5-5--5----|
      G|-7b9-----7b9---------7b9------7b9--|
      D|-----------------------------------|
      A|-----------------------------------|
      E|-----------------------------------|
      
      
      10^        = bend a quarter step.
      10b11      = bend a half step.
      10b12      = bend a full step.
      10b12r10   = bend and release.
      [10]12     = pre-bend.
      [10]12r10  = pre-bend and release.
      {14}       = pick the 14th fret while holding the most
                   previous bend.
             = touch the string above the 17th fret while
                   previous note(s) is(are) still ringing.
      
      10b13*     = tremolo bar bend, from the 10th fret to the 13th fret.
      7d4*       = tremolo bar dive, from the 7th fret to the 4th fret.
      12~*       = tremolo bar vibrato.
      
      x   =  mute with fret-hand
      *   =  palm mute
      X\\ =  pick slide
      h   =  hammer-on
      p   =  pull-off
      ~   =  vibrato
      t   =  finger tap
      /   =  slide up
      \   =  slide down
      h.  =  natural harmonics
      a   =  artificial harmonics
      (9) =  ghost note
      tm  =  trem picking
      tr  =  trill

      Comentários 0

      140 .
      140 cancelar

      conseguiu tocar?

      covers

      Grave um vídeo tocando Problems e mande pra gente!

      Ex.: http://www.youtube.com/watch?v=0IvSvIwGdwk
      ver covers de outras músicas »
      0:00 / 0:00

      Capítulos

        1 versão de violão dificuldade exibições contribuição e correção
        1 versão de guitarra dificuldade exibições contribuição e correção
        1 versão de cavaco dificuldade exibições contribuição e correção
        1 versão de teclado dificuldade exibições contribuição e correção
        play/pausefechar subir/descer velocidade
        6ª corda E5ª corda A4ª corda D3ª corda G2ª corda B1ª corda E
          acordes
          publicidade
          fechar
          ok