Cifra Club

Aprenda

She Wolf

Megadeth

Cifra: Principal (violão e guitarra)
tom: G
Riff 1:

Guitarra 1
E|---------------------------------|
B|---------------------------------|
G|---------------------------------|
D|---------------------------------|
A|---------------------------------|
E|-0-000-0-000-0-000-0-000-000-000-|
   * *** * *** * *** * *** *** *** [A Pegada Do Abafado Não É Tão Dificil como Parece, É So Questão Di Ouvir A Musica.]
  "The mother of all..."

Guitarra 2 fill 1:
E|------------------|
B|----14b17r14\-----|
G|----14b17r14\-----|
D|------------------|
A|---gradual-bend---|
E|------------------|

Riff 2:

E|----------------------------------------------|
B|-----4-------4--------------------------------|
G|-----0-------0--------------------------------|
D|-5--(5)--5--(5)--5--3-4-5\--3-4-5\--3-4-5-3-4-|
A|-3--(3)--3--(3)--3--1-2-3\--1-2-3\--1-2-3-1-2-|
E|----------------------------------------------|
                      * *     * *     * *   * * 
  "Wicked temptress...."
E|---------------------------------|
B|---------------------------------|
G|---------------------------------|
D|-5-------------------------------|
A|-3-333-3-333-3-333-3-333-333-333-|
E|---------------------------------|
     *** * *** * *** * *** *** ***

Guitarra2 fill 1:
E|-------------------------|
B|-------------------------|
G|------------------7b8----|
D|-----5b8*--------(8)r5*--|
A|-------------------------|
E|-------------------------|

E|----------------------------------------------|
B|-----4-------4--------------------------------|
G|-----0-------0--------------------------------|
D|-5--(5)--5--(5)--5--3-4-5\--3-4-5\--3-4-5-4-3-|
A|-3--(3)--3--(3)--3--1-2-3\--1-2-3\--1-2-3-2-1-|
E|----------------------------------------------|
                      * *     * *     * *   *   
  "Priestess roars..."


Play Riff 1   "The rite of the..."
Guitarra2 fill 1:
E|-/16-16-16--16\----/16-16-16--16\--|
B|-/15-15-15--15\----/15-15-15--15\--|
G|-/16-16-16--16\----/16-16-16--16\--|
D|-----------------------------------|
A|-----------------------------------|
E|-----------------------------------|

E|---------------------------|
B|---------------------------|
G|-14b16-14p12-14p12---------|
D|------------------14p12----|
A|-----------------------15~-|
E|---------------------------|

(Riff 2)  "Spellbound..."

Guitarra2 fill 1:
E|--18b20----{18}-{18}----{18}-----{18}------|
B|------------------------------[16]18r16~~--|
G|-------------------------------------------|
D|-------------------------------------------|
A|-------------------------------------------|
E|-------------------------------------------|

Guitarra2 fill 2:
E|--------------------------------|
B|------------10b11r10------------|
G|----------8-10b11r10-8-10-8-----|
D|-----8-10-------------------10\-|
A|-/10----------------------------|
E|--------------------------------|

Riff 3:

Guitarra1
E|------------------------|
B|------------------------|
G|------------------------|
D|-----------------8------|
A|-5--------3------6------|
E|-3--------1------6------|
  "The fight..."

Guitarra2
E|------------------------------------------------------|
B|------------------------------------------------------|
G|----------------------------3-------------------------|
D|--------------------3-----3---5p3~---5--6-5~--6--8-10-|
A|------------3---4h5---4h5-----------------------------|
E|-3~~--3-6-3---6---------------------------------------|
        * * * * * 

Riff 4:

Guitarra1
E|--------------------------------------------------|
B|--------------------------------------------------|
G|--------------------------------------------------|
D|-5----3---------8----5----3-----------------------|
A|-3----1----3----6----3----1----3----5---5-6-5-3---|
E|-----------1----6--------------1----3-----------6-|
  "One look in her..."
E|---------------------------------------------------|
B|---------------------------------------------------|
G|---------------------------------------------------|
D|-5----3---------8----5----3------------------------|
A|-3----1----3----6----3----1----3----5---5-6-5-3----|
E|-----------1----6--------------1----3-----------6\-|
  "One look in her..."

Guitarra2
E|-----------------------------------|
B|-----------------------------------|
G|-----------------------------------|
D|-10-10p8----10-8~~-----------------|
A|---------10----------8-8p6---8-6~~-|
E|---------------------------8-------|

E|-----------------------------------|
B|-----------------------------------|
G|-----------------------------------|
D|-10-10p8----10-8~~-----------------|
A|---------10----------8-8p6-8-/10~--|
E|-----------------------------------|

E|-----------------------------------|
B|-----------------------------------|
G|-----------------------------------|
D|-10-10p8----10-8~~-----------------|
A|---------10----------8-8p6---8-6~~-|
E|---------------------------8-------|

E|-----------------------------------|
B|-----------------------------------|
G|-----------------------------------|
D|-10-10p8----10-8~~-----------------|
A|---------10----------8-8p6-8-/10~--|
E|-----------------------------------|

Riff 1:   "My desires of flesh..."

Riff 2:   "Another heartbeat..."
Guitarra2 fill 1 (wah pedal):
E|-----------------------------------------------------------|
B|-----------------------------------------------------------|
G|-5p3p0-0-5p3p0-5p3p0-5p3p0-5p3p0h3-5p3p0-5p3-5p3p0-3p0-5p0-|
D|-----------------------------------------------------------|
A|-----------------------------------------------------------|
E|-----------------------------------------------------------|

E|-----------------------------|
B|-----------------------------|
G|-7b8----(8)r7-5-3------------|
D|------------------5-4-3------|
A|------------------------6-3~-|
E|-----------------------------|

Guitarra2 fill 2 (wah pedal):
E|---------------------|
B|-19~\----------------|
G|--a-----14b17r14~~*--|
D|---------------------|
A|---------------------|
E|---------------------|

Riff 3   "I'm stoned..."
Riff 4   "One look..."

Riff 5:

Guitarra 1 (Toque 2x)
E|----------------------------------------|
B|----------------------------------------|
G|----------------------------------------|
D|----------------------------------------|
A|-10------------------8------------------|
E|--8----8-8-8-8-8-8-8-6----6-6-6-6-6-6-6-|
         * * * * * * *      * * * * * * * 
  "Beware what stalks you in the night..."
E|----------------------------------------|
B|----------------------------------------|
G|----------------------------------------|
D|----------------------------------------|
A|-6------------------5----------8------9-|
E|-4----4-4-4-4-4-4-4-3----3-3-3-6----6-7-|
        * * * * * * *      * * *      * 
  "Her mystic lips..."

Guitarra 2 toque junto com riff 5 no final da segunda vez:
E|--8-----------10-----------11-----|
B|-11b13~-------13b15~-------14b16~-|
G|----------------------------------|
D|----------------------------------|
A|----------------------------------|
E|----------------------------------|

E|-15------15------15------15---------|
B|-18b20~--18b20~--18b20~--18b20~-...-|
G|------------------------------------|
D|------------------------------------|
A|------------------------------------|
E|------------------------------------|

Final:

Riff 6 - 2x:

E|---------------------------------|
B|---------------------------------|
G|---------------------------------|
D|---------------------------------|
A|-10------------------------------|
E|--8--8-8-8-8-8-8-8-8-8-8-8-8-8-8-|
       * * * * * * * * * * * * * * 
E|----------------------------------|
B|----------------------------------|
G|----------------------------------|
D|----------------------------------|
A|-8--------------------------------|
E|-6--6-6-6-6-6-6-6-6-6-6-6-6-6-6-6-|
      * * * * * * * * * * * * * * * 
E|------------------------------|
B|------------------------------|
G|------------------------------|
D|------------------------------|
A|-6----------------------------|
E|-4--4-4-4-4-4-4-4-4-4-4-4-4-4-|
      * * * * * * * * * * * * * 
E|------------------------------|
B|------------------------------|
G|------------------------------|
D|------------------------------|
A|-5--------------8----------9--|
E|-3--3-3-3-3-3-3-6--6-6-6-6-7--|
      * * * * * *    * * * * 

Riff 7 - 4x: 

E|--------------------------------|
B|--------------------------------|
G|--------------------------------|
D|--------------------------------|
A|-10--------------8--------------|
E|--8--8-8-8-8-8-8-6--6-6-6-6-6-6-|
       * * * * * *    * * * * * * 
E|-----------------------------|
B|-----------------------------|
G|-----------------------------|
D|-----------------------------|
A|-6--------------5-------8--9-|
E|-4--4-4-4-4-4-4-3-3-3-3-6--7-|
      * * * * * *   * * *

Riff 8 - 2x:

E|-------------------------------|
B|-------------------------------|
G|-------------------------------|
D|-------------------------------|
A|-10-------------8--------------|
E|--8-------------6--------------|
                               Final 
E|-----------------------------|------|
B|-----------------------------|------|
G|-----------------------------|------|
D|-----------------------------|------|
A|-6--------------5-------8--9-|--10--|
E|-4--------------3-3-3-3-6--7-|---8--|
                    * * * 

Final (Solo):

Solo 1 - 2x:

Guitarra 1
E|-------------------------------|
B|-------3-4-6~--4-3-4~--3-------|
G|-5~----------------------5-3~--|
D|-------------------------------|
A|-------------------------------|
E|-------------------------------|

E|-6--4-3---4-3------------------------|
B|--------6-----6-4--------------------|
G|------------------1~--------3-----1--|
D|------------------------1h3---1h3----|
A|-------------------------------------|
E|-------------------------------------|
                                    Final 
E|----------------------------------|-----|
B|----------------------------------|-----|
G|-----0----1---0-1---3~----1---3-4-|--5--|
D|-1h3----3---3-----3-----3---3-----|-----|
A|----------------------------------|-----|
E|----------------------------------|-----|

Guitarra 2  (Junto Com a Segunda Vez)
E|------------------------------|
B|------6-8-9~--8-6-8~--6-------|
G|--8~--------------------8-7~--|
D|------------------------------|
A|------------------------------|
E|------------------------------|

E|-10--8-6---8-6-------------------------|
B|---------9-----9-8---------------------|
G|-------------------5~--------7------5--|
D|-------------------------5h6----5h6----|
A|---------------------------------------|
E|---------------------------------------|

E|-------------------------------------|
B|-------------------------------------|
G|-----4----5---4-5---7~----5---6-7--8-|
D|-5h6----6---6-----6-----6---6--------|
A|-------------------------------------|
E|-------------------------------------|

Solo 2 - 4x: 

Guitarra 1
E|------------------------------|
B|------------------------------|
G|-8-7----7-8-----8-7----7-8----|
D|-----10------8------10------6-|
A|------------------------------|
E|------------------------------|

E|-------------------------------|
B|-------------------------------|
G|-8-7----7-8-----8-7----7-8-----|
D|-----10------5------10------10-|
A|-------------------------------|
E|-------------------------------|

Guitarra 2
E|-----------------------------|
B|-8-6---6-8-----8-6---6-8-----|
G|-----8------7------8------5--|
D|-----------------------------|
A|-----------------------------|
E|-----------------------------|

E|-----------------------------|
B|-8-6---6-8-----8-6---6-8-----|
G|-----8------4------8------8--|
D|-----------------------------|
A|-----------------------------|
E|-----------------------------|

Guitarra 3 (somente o 3 e 4 tempo)
E|-8-6---6-8-----8-6---6-8-----|
B|-----8------6------8---------|
G|--------------------------8--|
D|-----------------------------|
A|-----------------------------|
E|-----------------------------|

E|-8-6---6-8-----8-6---6-8-----|
B|-----8-------------8------8--|
G|------------7----------------|
D|-----------------------------|
A|-----------------------------|
E|-----------------------------|

Solo 3 - 2x:

Guitarra 1
E|----------------------------------------|
B|----------------------------------------|
G|-8-8-8-7h8p7---8-----8-8-8-7h8p7---8----|
D|------------10----8-------------10----6-|
A|----------------------------------------|
E|----------------------------------------|

E|----------------------------------------|
B|----------------------------------------|
G|-8-8-8-7h8p7---8-----8-8-8-7h8p7---8----|
D|------------10----5-------------10---10-|
A|----------------------------------------|
E|----------------------------------------|

Guitarra 2
E|----------------------------------------|
B|-8-8-8-6h8p6---8-----8-8-8-6h8p6---8----|
G|-------------8----7--------------8----5-|
D|----------------------------------------|
A|----------------------------------------|
E|----------------------------------------|

E|----------------------------------------|
B|-8-8-8-6h8p6---8-----8-8-8-6h8p6---8----|
G|-------------8----4--------------8----8-|
D|----------------------------------------|
A|----------------------------------------|
E|----------------------------------------|
Composição de Dave Mustaine
Colaboração e revisão:
  • Matheus Nogueira
  • Cesar Nascimento
48.029 exibições
    • ½ Tom
    • A
    • Bb
    • B
    • C
    • Db
    • D
    • Eb
    • E
    • F
    • F#
    • G
    • Ab
  • Adicionar à lista

    0 comentários

    Ver todos os comentários

    Conseguiu tocar?

    14 Tocaram 1 Ainda não

    Grave um vídeo tocando She Wolf e nos envie!

    00:00 / 00:00
    outros vídeos desta música
    repetir qualidade Automático
    Outros vídeos desta música
    00:00 / 00:00
    Automático

    Cifra Club Pro

    Aproveite o Cifra Club com benefícios exclusivos e sem anúncios
    Cifra Club Pro
    Aproveite o Cifra Club com benefícios exclusivos e sem anúncios
    OK