Cifra Club

Aprenda

She Wolf

Megadeth

Tab de baixo: Versão 2
Standard Tuning

Intro/Verse - All Guitar

Drum Fills and Band Breaks in
Verse
I-------------------------------I
I-------------------------------I
I-------------------------------I
I-0-0000-0-0000-0-0000-000-000--I

Pre-Chorus
I----------------------------------------------------------------------------
I----------------------------------------------------------------------------
I-3--3--3--3-3-1-2-3-1-2-3-1-2-3-1-2-3-3-3333-3-3333-3-3333-333-333--3--3--3-
I----------------------------------------------------------------------------

 ----------------------------------------------------------------------------
 ----------------------------------------------------------------------------
 -3-3-1-2-3-1-2-3-1-2-3-1-2-3-1-5-5-5-5-5-5-5-5-5-5-5-5-5-5-5-5--------------
 --------------------------------------------------------------3-3-3-3-3-3-3-

 ----------------------------------I
 ----------------------------------I
 ------------------6-6-6-6-6-6-6-6-I
 -3-1-1-1-1-1-1-1-1----------------I

Chorus
I-------------------------------------------------------------------
I-------------------------------------------------------------------
I-3-3-3333-33-1-1-1111-1-1------------6-6-6666-6-6-3-3-3333-3-3-1-1-
I-------------------------1-1-1111-1-1------------------------------

-------------------------------------I
-------------------------------------I
-1111-1-1-----------------------1-3--I
---------1-1-1111-1-1-3-3-3333-3-----I

Verse
I-------------------------------I
I-------------------------------I
I-------------------------------I
I-0-0000-0-0000-0-0000-000-000--I

Pre-Chorus
I-------------------------------------------------------------------
I-------------------------------------------------------------------
I-3--3--3--3-3-1-2-3-1-2-3-1-2-3-1-2-3-3-3333-3-3333-3-3333-333-333-
I-------------------------------------------------------------------

 ------------------------------------------------------------------
 ------------------------------------------------------------------
 -3--3--3--3-3-1-2-3-1-2-3-1-2-3-1-2-3-1-5-5-5-5-5-5-5-5-5-5-5-5-5-
 ------------------------------------------------------------------

 -----------------------------------------------------I
 -----------------------------------------------------I
 -5-5-5-------------------------------6-6-6-6-6-6-6-6-I
 ------3-3-3-3-3-3-3-3-1-1-1-1-1-1-1-1----------------I


Chorus
I-----------------------------------------------------------------
I-----------------------------------------------------------------
I-3-3-3333-33-1-1-1111-1-1------------6-6-6666-6-6-3-3-3333-3-3-1-
I-------------------------1-1-1111-1-1----------------------------

---------------------------------------I
---------------------------------------I
-1-1111-1-1-----------------------1-3--I
-----------1-1-1111-1-1-3-3-3333-3-----I

Interlude
Repeat Twice
I-------------------------------------------------------------
I-------------------------------------------------------------
I-3-3333333333333333--1-11111111111111111---------------------
I----------------------------------------4-4444444444444444-3-

----------------------I
----------------------I
----------1-1111-2-3--I
-333333333------------I

Solo
Repeat 6
I-------------------------------------------------------------
I-------------------------------------------------------------
I-3-3333333333333333--1-11111111111111111---------------------
I----------------------------------------4-4444444444444444-3-

----------------------I
----------------------I
----------1-1111-2-3--I
-333333333------------I

Outro
Repeat Twice
I-------------------I
I-------------------I
I-3--1--------1--3--I
I------4---3--------I
Composição de Dave Mustaine
Colaboração e revisão:
  • Taino Vieira
50 exibições

0 comentários

Ver todos os comentários

Conseguiu tocar?

0 Tocaram 0 Ainda não

Grave um vídeo tocando She Wolf e nos envie!

00:00 / 00:00
outros vídeos desta música
repetir qualidade Automático
Outros vídeos desta música
00:00 / 00:00
Automático

Cifra Club Pro

Aproveite o Cifra Club com benefícios exclusivos e sem anúncios
Cifra Club Pro
Aproveite o Cifra Club com benefícios exclusivos e sem anúncios
OK