Cifra Club

The Killing Road

Megadeth

Cifra: Principal (violão e guitarra)
Selo Cifra Club: esta cifra foi revisada para atender aos critérios oficiais da nossa Equipe de Qualidade.
tom: C
INTRO I
E----------------------------------------
B----------------------------------------
G----------------------------------------2X
D----------------------------------------
A-------7-------8-------7-------8-----5
E-0’-0’-- 0-’0’-- 0’-0’-- 0’-0’-- 0’--

INTRO II
E----------------------------------------
B----------------------------------------
G-------9------10-------9------10-----2X
D-------9------10-------9------10-----
A-------7-------8-------7-------8-----5
E-0’-0’-- 0-’0’-- 0’-0’-- 0’-0’-- 0’-

INTRO III e estrofe
E------------------------------------------------
B------------------------------------------------
G------------------------------------------------
D------------------------------------5-----------
A-------7-------8-------7-----5/2--------------
E-0’-0’-- 0-’0’-- 0’-0’-- 0’----------3-2-1-1

E-------------------------------------------------
B-------------------------------------------------
G-------------------------------------------------
D---3------3----3------------11------------9---
A--------------------------10------------9------
E-----1-1----1------8-8----------7-7---------0     Usar essa nota somente antes do refrão 



REFRÃO
E5     B5  A#5   G5 F5 E   E5         B5  A#5 G5 F5 E
I lost my mind,                  I lost all my money
E5     B5  A#5   G5 F5 E   E5         B5 A#5 G5 F5  E  
I lost my life to the Killing road


VARIAÇÃO PRO SOLO

E------------------------------
B------------------------------
G------------------------------
D------------------------------
A-7-8-5-7-3-5-2-3---2------
E---------------------5---3----   

BASE DO SOLO

É uma base bem chatinha de ouvir os detalhes
mas assim está bem perto.

F#     E     F#5§    G5§

No final do solo a base para em F# e há três “ataques” em F#, 1 em G5 e volta para E



     E5               B5                A#5            G5           
E-------          -------           --------         -------
B-------          -------           --------         -------
G---9--          ----9--           ----8--         -------
D---9--          ----9--           ----8--         ----5--
A---7--          ----9--           ----8--         ----5--
E---0--          ----7--            ----6--         ----3--

     F5             E5             G5§               F#5§
E------         -------       ---------        -----------
B------         -------      ----------        -----------
G------         -------      ----------       ------------
D---4--        -------      ----5-----       ------4-----
A---4--        ----2--     ----5-----        ------4----
E---2--         ----0--     ----------        ------------


Qualquer dúvida, sugestão ou idéia é muito bem vinda.

       Contate com Eduardo Marmitt



’ = Abafar
/ = Slide
Outros vídeos desta música
    9.601 exibições
      • ½ Tom
      • A
      • Bb
      • B
      • C
      • Db
      • D
      • Eb
      • E
      • F
      • F#
      • G
      • Ab
    • Adicionar à lista

    Afinação da cifra

    Afinador online

      0 comentários

      Ver todos os comentários

      Entre para o Cifra Club PRO

      Tenha acesso a benefícios exclusivos no App e no Site

      • Chega de anúncios

      • Badges exclusivas

      • Mais recursos no app do Afinador

      • Atendimento Prioritário

      • Aumente seu limite de lista

      • Ajude a produzir mais conteúdo

      Cifra Club Pro

      Aproveite o Cifra Club com benefícios exclusivos e sem anúncios
      Cifra Club Pro
      Aproveite o Cifra Club com benefícios exclusivos e sem anúncios
      OK