Cifra Club

Aprenda

Time: The End

Megadeth

Cifra: Principal (violão e guitarra)
tom: Dm

Intro (Play 4x)
E|---------------------------------|
B|---------------------------------|
G|---------------------------------|
D|-5/6-----------------------------|
A|-6/7-----------------------------|
E|-----0-0-3p0-0-0-0-0-0-0-0-0-0-0-|
       * *     * * * * * * * * * *

Riff 1
E|---------------------------------|
B|---------------------------------|
G|---------------------------------|
D|-5/6-----------------------------|
A|-6/7-----------------------------|
E|-----0-0-3p0-0-0-0-0-0-0-0-0-0-0-|
       * *     * * * * * * * * * *
E|----------------------------------|
B|----------------------------------|
G|----------------------------------|
D|-5/6-----8/-9---------------------|
A|-6/7-----9/10---------------------|
E|-----0-0------0-0-0-0-0-0-0-0-0-0-|
       * *      * * * * * * * * * *
E|---------------------------------|
B|---------------------------------|
G|---------------------------------|
D|-5/6-----------------------------|
A|-6/7-----------------------------|
E|-----0-0-3p0-0-0-0-0-0-0-0-0-0-0-|
       * *     * * * * * * * * * *
E|-----------------------------|
B|-----------------------------|
G|-----------------------------|
D|-5/6-----8/-9---3-x----------|
A|-6/7-----9/10---1-x-3-x-2-2--|
E|-----0-0------0-----1-x-0-0--|
       * *      *


Riff 2
Guitar 1
E|---------------------------------|
B|---------------------------------|
G|---------------------------------|
D|-5/6-----------------------------|
A|-6/7-----------------------------|
E|-----0-0-3p0-0-0-0-0-0-0-0-0-0-0-|
       * *     * * * * * * * * * *
   "I see..."
E|----------------------------------|
B|----------------------------------|
G|----------------------------------|
D|-5/6-----8/-9---------------------|
A|-6/7-----9/10---------------------|
E|-----0-0------0-0-0-0-0-0-0-0-0-0-|
       * *      * * * * * * * * * *
   "...Chronos..."

Final time:
E|-----------------------------|
B|-----------------------------|
G|-----------------------------|
D|-5/6-----8/-9---3-x----------|
A|-6/7-----9/10---1-x-3-x-2-2--|
E|-----0-0------0-----1-x-0-0--|
       * *      *
   "...expire..."

Guitar 2 (w/ wah pedal, delay, and octaver (one octave down)
E|-------------------------------------|
B|-12~----11~--------------------------|
G|---------------[11]12r11-9~~----(9)\-|
D|-------------------------------------|
A|-------------------------------------|
E|-------------------------------------|

E|----------------------------------|
B|-----12~----11~-------------------|
G|-/9----------------[11]12r11-9~~--|
D|----------------------------------|
A|----------------------------------|
E|----------------------------------|

E|-----------12----------------------------------|
B|----12~-------11b12-11~------------------------|
G|-9-------------------------[11]12r11-9\7b9r7~~-|
D|-----------------------------------------------|
A|-----------------------------------------------|
E|-----------------------------------------------|

E|-12-------------12-------------------------------|
B|----15b17~~\-------15b17~~\----/15~--15----------|
G|----------------------------------------12~------|
D|--------------------------------------------14~\-|
A|-------------------------------------------------|
E|-------------------------------------------------|


Riff 3
Guitar 1            x3
E|-------------------|
B|-------------------|
G|-------------------|
D|-2----4----5----7--|
A|-0----2----3----5--|
E|-------------------|
  "Beat the clock..."
E|---------------------------|
B|---------------------------|
G|---------------------------|
D|-2------------4------------|
A|-0--0-7p0-6h7-2--0-5p0-3h5-|
E|---------------------------|
  "I can't let..."
E|------------------------------|
B|------------------------------|
G|------------------------------|
D|-5------------7-7-7-7-7-7-7-7-|
A|-3--0-3p0-3h5-5-5-5-5-5-5-5-5-|
E|------------------------------|

Guitar 2
E|-5-5-5-5-5-5-5-5-----5-5-5-5/-|
B|-5-5-5-5-5-5-5-5-...-5-5-5-5/-|
G|------------------------------|
D|------------------------------|
A|------------------------------|
E|------------------------------|
   "Beat the clock..."
E|-15-14-15-14-15-14-15-14-----14-15-14-15------|
B|-13-13-13-13-13-13-13-13-...-13-13-13-13-x-8/-|
G|----------------------------------------------|
D|----------------------------------------------|
A|----------------------------------------------|
E|----------------------------------------------|
   "Tick tock..."
E|-17-17-17-17-17-17-17-17-17-17-...-17-17-17-17-|
B|-------15-13-15-13-15-13-15-13-...-15-13-15-13-|
G|-----------------------------------------------|
D|-----------------------------------------------|
A|-----------------------------------------------|
E|-----------------------------------------------|
   "I can't let time..."
E|-17^-17^-17^-17^-17^-17^-17^-|
B|-15^-15^-15^-15^-15^-15^-15^-|
G|-----------------------------|
D|-----------------------------|
A|-----------------------------|
E|-----------------------------|
   "...win..."


Play Riff 2   Solo Rhythm

Solo (Mustaine)
E|------------------------------------------|
B|-15-12tr15----------(12tr15)d*------------|
G|----------[dive 5.5 steps then come back]-|
D|------------------------------------------|
A|------------------------------------------|
E|------------------------------------------|

E|--------12-------12-12---------|
B|-15b17----15b17--------15b17~~-|
G|-------------------------------|
D|-------------------------------|
A|-------------------------------|
E|-------------------------------|

E|-12-------------------------------12-12-|
B|----15b17-15b17-15b17-15b17-15b17-------|
G|----------------------------------------|
D|----------------------------------------|
A|----------------------------------------|
E|----------------------------------------|

E|-17b19--17b19--17b19--17b19-17b19-17b19~~-|
B|------------------------------------------|
G|------------------------------------------|
D|------------------------------------------|
A|------------------------------------------|
E|------------------------------------------|

E|-17p12---15p12---14p12---15p12---14p12---|
B|------12------12------12------12------12-|
G|-----------------------------------------|
D|-----------------------------------------|
A|-----------------------------------------|
E|-----------------------------------------|

E|-17p12---15p12---14p12---15p12---14p12---|
B|------12------12------12------12------12-|
G|-----------------------------------------|
D|-----------------------------------------|
A|-----------------------------------------|
E|-----------------------------------------|

E|-----------------------------------|
B|-12^-12^-12^-12^-12^-12^-----------|
G|-12^-12^-12^-12^-12^-12^-----------|
D|-------------------------14~~------|
A|-----------------------------------|
E|-------------------------------X\\-|

E|-----------------------------------------|
B|-----------------------------------------|
G|-----------------------------------------|
D|-----------------------------------------|
A|------------------------11p0--12--14--15-|
E|-1/--/12~--12-12~~--12-------------------|
              *        *
E|-------------------------------------16-17-19-20-|
B|----------------------------15-17-18-------------|
G|-------------------14-16-17----------------------|
D|----------14-15-18-------------------------------|
A|-14-15-17----------------------------------------|
E|-------------------------------------------------|

NOTE: The following bars go into the next section:

E|-19--------19----19--19--19--19--19--19--19-|
B|--------------------------------------------|
G|--------------------------------------------|
D|--------------------------------------------|
A|--------------------------------------------|
E|--------------------------------------------|

E|-19~~--19~~--19~-19-19-19--19-19-19-19-19-...-|
B|----------------------------------------------|
G|----------------------------------------------|
D|----------------------------------------------|
A|----------------------------------------------|
E|----------------------------------------------|

E|-19tm----------------19tm--|
B|---------------------------|
G|---------------------------|
D|---------------------------|
A|---------------------------|
E|---------------------------|

E|---------------------------|
B|---------------------------|
G|-4--[gradual dive w/ bar]--|
D|---------------------------|
A|---------------------------|
E|---------------------------|

End Solo


Ending:
Guitar 1
E|------------------------|
B|------------------------|
G|------------------------|
D|-9----9--x-7--7-7----7\-| ----|
A|-7----7--x-5--5-5----5\-|     |
E|------------------------|     |
                                |--> Play 4x
E|------------------------|     |
B|------------------------|     |
G|------------------------|     |
D|-2----2--x-5--5-5----5/-| ----|
A|-0----0--x-3--3-3----3/-|
E|------------------------|

E|---------------------|
B|---------------------|
G|---------------------|
D|-9----9--x-7--7-7----|
A|-7----7--x-5--5-5----|
E|---------------------|

E|---------------------|
B|---------------------|
G|---------------------|
D|-7----7--x-5--5-5----|
A|-4----4--x-3--3-3----|
E|---------------------|

E|-----------------------------|
B|-----------------------------|
G|-----------------------------|
D|-5--5--7-7--7-7----7----2----|
A|-2--2--4-5--4-5----4----3----|
E|-----------------------------|

Guitar 2 (Play 2x)
E|------------------------------------------------|
B|----9-10-9------7-8-7\-----2-3-2--5--5-5----7-7-|
G|----------------------------------5--5-5--------|
D|-/9---------9\7---------/2--------5--5-5--------|
A|------------------------------------------------|
E|------------------------------------------------|

Guitar 3 (Friedman)
E|------------------------------------------------------|
B|----9-10-9------7-8-7\--------------------------------|
G|-------------------------------4/12~~--[13]14r13------|
D|-/9---------9\7----------------------------------14~~-|
A|------------------------------------------------------|
E|------------------------------------------------------|

E|-------------------------------------------|
B|-------------------------------------------|
G|---------------1/12~~--[13]14r13-13--------|
D|-(14~~)-----------------------------14-----|
A|---------------------------------------14~-|
E|-------------------------------------------|

E|------------------------------------------|
B|------------------------------------------|
G|-11--(11)b12r11------11b12r11-------------|
D|----------------12------------14~---(14)\-|
A|------------------------------------------|
E|------------------------------------------|

E|----------8-12t5---------------------|
B|-------10--------13t5----------------|
G|-----9----------------14t5---------9-|
D|-/10-----------------------14t7t10---|
A|-------------------------------------|
E|-------------------------------------|

E|-------------------------------------|
B|-10b12--p(12)r10-9-10-12-10--9---|
G|-----------------------------------9-|
D|-------------------------------------|
A|-------------------------------------|
E|-------------------------------------|

E|--------------------------------------------|
B|-10b12--p(12)r10--8-10-10b11-10~--8-----|
G|----------------------------------------9-9-|
D|--------------------------------------------|
A|--------------------------------------------|
E|--------------------------------------------|

E|---------------------/16-17-19-17--16h17p16---16\12--------|
B|-10b12--p(12)r10-----------------------17--------15b17-|
G|-----------------------------------------------------------|
D|-----------------------------------------------------------|
A|-----------------------------------------------------------|
E|-----------------------------------------------------------|

E|-12----12h15-12----12--------------------------------------|
B|----15----------15----15-12----15p12-----------------------|
G|----------------------------14-------[14]15r14-12~~--(12)\-|
D|-----------------------------------------------------------|
A|-----------------------------------------------------------|
E|-----------------------------------------------------------|

E|------12--------12----12-14----12-----------12----------|
B|-/12--12-15b16-----15-------15-----------12----12-15b17-|
G|----------------------------------14b16-----------------|
D|----------***-------------------------------------------|
A|--[gtr. 4 starts here]----------------------------------|
E|--------------------------------------------------------|

E|-12--12---------------------------------------|
B|--------15-12---------------------------------|
G|--------------15\14p12-14p12-14p12------------|
D|-----------------------------------14-12-14~~-|
A|----------------------------------------------|
E|----------------------------------------------|

E|---------------------------------------------------|
B|-12^-----------------------------------------------|
G|-12^-----------------------------------------------|
D|------14p12----------------------------------------|
A|------------14\12p10-12p10-12p10-12p10-------------|
E|---------------------------------------12p10-12~~\-|

Guitar 4
E|--------------------------------------------10--|
B|-9--10--8---10--9--10--12--10--9--10--12----10--|
G|----------9-------------------------------------|
D|------------------------------------------------|
A|------------------------------------------------|
E|------------------------------------------------|
Composição de Dave Mustaine
Colaboração e revisão:
  • Pedro Rodrigues
28 exibições
    • ½ Tom
    • Am
    • Bbm
    • Bm
    • Cm
    • C#m
    • Dm
    • Ebm
    • Em
    • Fm
    • F#m
    • Gm
    • G#m
  • Adicionar à lista

    0 comentários

    Ver todos os comentários

    Conseguiu tocar?

    0 Tocaram 0 Ainda não

    Grave um vídeo tocando Time: The End e nos envie!

    00:00 / 00:00
    outros vídeos desta música
    repetir qualidade Automático
    Outros vídeos desta música
    00:00 / 00:00
    Automático

    Cifra Club Pro

    Aproveite o Cifra Club com benefícios exclusivos e sem anúncios
    Cifra Club Pro
    Aproveite o Cifra Club com benefícios exclusivos e sem anúncios
    OK