Cifra Club

Trust

Megadeth

Cifra: Principal
exibições 58.093
Tom: F
Introdução:

E|-----------------------------------------------------|
B|-----------------------------------------------------|
G|-9~...--9\7--7-7--7-7-7/9~---------------------------|
D|-----------------------------------------------------|
A|-----------------------------------------------------|
E|-----------------------------------------------------|

E|----------12~-----------12~--------------------------|
B|---12~-----------12~-----------12~-------------------|
G|-9------9------9------9------9-----------------------|
D|-----------------------------------------------------|
A|-----------------------------------------------------|
E|-----------------------------------------------------|

E|-------------13-------13----13----13----13---12------|
B|---16b18~----16b18~--b18~--b18~--b18~--b18~--15b17~--|
G|-9---------------------------------------------------|
D|-----------------------------------------------------|
A|-----------------------------------------------------|
E|-----------------------------------------------------|

(Riff Principal)

E|-----------------------------------------------------|
B|-----------------------------------------------------|
G|-----------------------------------------------------|
D|-----------------------------------------------------|
A|---7---------7---------7~----------------------------|
E|-0---8-7~--0---8~--7-0-----8-7~----------------------|

E|-----------------------------------------------------|
B|-----------------------------------------------------|
G|-----------------------------------------------------|
D|-----------------------------------------------------|
A|---7---------7---------5-----------------------------|
E|-0---8-7~--0---6~--5-0---x-6-8-----------------------|


Primeira Parte:

      P.M . . .     . . . . . .
E|------------------------------------------|
B|------------------------------------------|
G|------------------------------------------|
D|-9----------------------------------------|
A|-7------------10--------------------------|
E|----0-0-0-0-0--8--0-0-0-0-0-0-------------|

      P.M . . . .    . . . . . .
E|------------------------------------------|
B|------------------------------------------|
G|------------------------------------------|
D|------------------------------------------|
A|-7--------------3-------------------------|
E|-5--0-0-0-0-0-0-1--0-0-0-0-0-0------------|

      P.M . . . .     . .    . .
E|------------------------------------------|
B|------------------------------------------|
G|------------------------------------------|
D|-9----------------------------------------|
A|-7--------------10------9-----------------|
E|----0-0-0-0-0-0--8--0-0-7--0-0------------|

      P.M . . . .    . . . . . .
E|------------------------------------------|
B|------------------------------------------|
G|------------------------------------------|
D|------------------------------------------|
A|-7--------------3-------------------------|
E|-5--0-0-0-0-0-0-1--0-0-0-0-0-0------------|

 E5         C5
Lost in a dream
 A5                 F5
Nothing is what it seems
 E5           C5  B5
Searching my head
         A5             F5
For the words that you said


      P.M . . . .     . . . . . .
E|------------------------------------------|
B|------------------------------------------|
G|------------------------------------------|
D|-9----------------------------------------|
A|-7--------------10------------------------|
E|----0-0-0-0-0-0--8--0-0-0-0-0-0-----------|

      P.M . . . .    . . . . . .
E|------------------------------------------|
B|------------------------------------------|
G|------------------------------------------|
D|------------------------------------------|
A|-7--------------3-------------------------|
E|-5--0-0-0-0-0-0-1--0-0-0-0-0-0------------|

      P.M . . . .     . .    .    .
E|------------------------------------------|
B|------------------------------------------|
G|------------------------------------------|
D|-9---------------------------7------------|
A|-7--------------10------9----5------------|
E|----0-0-0-0-0-0--8--0-0-7--0----0---------|

      P.M . . . .    . . . . . . .
E|------------------------------------------|
B|------------------------------------------|
G|------------------------------------------|
D|------------------------------------------|
A|-7--------------3-------------------------|
E|-5--0-0-0-0-0-0-1--1-1-1-1-1-1-1----------|

E5                 C5
   Tears filled my eyes
       A5                F5
As we said our last goodbyes
  E5               C5  B5
This sad scene replays
D5      A5       F5
Of you walking away


Primeiro Refrão:

My body aches from mistakes
Betrayed by lust
We lied to each other so much
That in nothing we trust


Segunda Parte:

E5            C5
   Time and again
       A5                F5
She repeats: Let's be friends
  E5                 C5
I    smile and say: Yes
B5        A5
Another truth bends
   F5
I must confess

E5            C5         A5
I try to let go, but I know
            F5
We'll never end 'til we're dust
    E5          C5  B5  D5  A5
We lied to each o_ther  a__gain
           F5
But I wish I could trust


Segundo Refrão:

My body aches from mistakes
Betrayed by lust
We lied to each other so much
That in nothing we trust

God help me please, on my knees
Betrayed by lust
We lied to each other so much
Absolutely nothing we trust


Interlúdio:

   Em   C7M  C#m7(b5)  D5
E|-0----0----0------------------------------|
B|-0----0----0-----------3------------------|
G|-0----0----0-----------2------------------|
D|-2----2----2-----------0------------------|
A|-2----3----4------------------------------|
E|-0----------------------------------------|

(Violão 1)

   Am                                 Gm
E|------------------------------------------|
B|-1-----1h3--1h3p1---------1---------------|
G|-----2------------2-----2-------2/5-------|
D|---2----------------2-1-----1-------7-5~--|
A|------------------------------3-----------|
E|------------------------------------------|

                    Gm7(b5)
E|------------------------------------------|
B|------------------------------------------|
G|--------3p2h3-----------------6p5h6-------|
D|--------------5---------------------8-----|
A|------5---------5-5/8-----------------8---|
E|------------------------------------------|

   Am6             A7(b9)
E|------------------------------------------|
B|-----------------------------8---8/11~----|
G|-------------------------6----------------|
D|---------7-7~--------5--------------------|
A|-8p7---7---------0------------------------|
E|------------------------------------------|

E|------------------------------------------|
B|-8h11p8-----------------------------------|
G|----------9-------------------------------|
D|--------------11~-------------------------|
A|------------------------------------------|
E|------------------------------------------|

(Violão 2)

   Am                                 Gm
E|------------------------------------------|
B|-5-----5h6--5h6p5-----6-----4-------------|
G|-----5------------5-----5-----5-----8-7~--|
D|---7----------------7-----7-----7---------|
A|------------------------------------------|
E|------------------------------------------|

                   Gm7(b5)
E|------------------------------------------|
B|--------8---8-10-10/11------6-------------|
G|------7---7------------10-6---6p5---6-----|
D|----8-----------------------------8---8---|
A|-10---------------------------------------|
E|------------------------------------------|

   Am6-             A7(b9)
E|---------0--------------------------------|
B|-------6---6-----------------5---5/8~-----|
G|-----5-------5-----------3----------------|
D|---7-----------7-----2--------------------|
A|-0---------------0------------------------|
E|------------------------------------------|

E|------------------------------------------|
B|-5h8p5------------------------------------|
G|---------6--------------------------------|
D|-------------7~---------------------------|
A|------------------------------------------|
E|------------------------------------------|


Ponte:

  P.M. . . . . . . . . . . . . .
E|------------------------------------------|
B|------------------------------------------|
G|---------------------0-------0------------|
D|-----0-------0-----0-------0--------------|
A|---0-------0-----1-----1-0----------------|
E|-1-----1-0-----0---------------3----------|

      P.M. . . . . 
E|------------------------------------------|
B|------------------------------------------|
G|-2----------------------------------------|
D|-2----------------------------------------|
A|-0---0-0-0-0-0-0--------------------------|
E|------------------------------------------|

  P.M. . . . . . .
E|------------------------------------------|
B|------------------------------------------|
G|------------------------------------------|
D|------------------------------------------|
A|-0-0-0-0-0-0-0-0--------------------------|
E|------------------------------------------|

  P.M. . . . . . .
E|------------------------------------------|
B|------------------------------------------|
G|-----------------2------------------------|
D|-----------------2------------------------|
A|-0-0-0-0-0-0-0-0-0------------------------|
E|------------------------------------------|


Solo:

E|-----------------------------------------------------|
B|----------11b~--------------------12b~---------------|
G|-9~~--9-------------9~~--9h12p9-------------9~~------|
D|--------9--------/9-------------9---------9----------|
A|-----------------------------------------------------|
E|-----------------------------------------------------|

E|-----------------------------------------------------|
B|----------16--17b20~--b20rb20--b20r------------------|
G|------16-------------------------------2b--2b--2br~~-|
D|-/17-------------------------------------------------|
A|-----------------------------------------------------|
E|-----------------------------------------------------|

E|----------------15----------18b19~~--18p17p15--------|
B|-----17---17~-------17------------------------17~----|
G|-/16----x---------------16---------------------------|
D|-----------------------------------------------------|
A|-----------------------------------------------------|
E|-----------------------------------------------------|

E|----------15-19p15----15h19-20b22~-------------------|
B|----17-19----------19--------------------------------|
G|-16--------------------------------------------------|
D|-----------------------------------------------------|
A|-----------------------------------------------------|
E|-----------------------------------------------------|

E|-19-22-22b24--b23-b24-b24-b23-b24...-----------------|
B|-----------------------------------------------------|
G|-----------------------------------------------------|
D|-----------------------------------------------------|
A|-----------------------------------------------------|
E|-----------------------------------------------------|

E|-----------------------------------------------------|
B|-/15-15h17p15p12----12h15h17p15p12-------------------|
G|-----------------15----------------------------------|
D|-----------------------------------------------------|
A|-----------------------------------------------------|
E|-----------------------------------------------------|

E|---------10h12h14p12p10----------------10h12h14p12p10|
B|10h12h14----------------14-12-10h12h14---------------|
G|-----------------------------------------------------|
D|-----------------------------------------------------|
A|-----------------------------------------------------|
E|-----------------------------------------------------|

E|----------------10h12h15p12p10-----------------------|
B|-14-12-10h12h14----------------14-12-10h12h14/15p12h-|
G|-----------------------------------------------------|
D|-----------------------------------------------------|
A|-----------------------------------------------------|
E|-----------------------------------------------------|

E|-----------------------------------------------------|
B|-14p12----12-----------------------------------------|
G|-------15----15p14p12--------------------------------|
D|----------------------14-12-14~----------------------|
A|-----------------------------------------------------|
E|-----------------------------------------------------|

My body aches from mistakes
Betrayed by lust
We lied to each other so much
That in nothing we trust

God help me please, on my knees
Betrayed by lust
We lied to each other so much
Absolutely nothing we trust

My body aches from mistakes
Betrayed by lust
We lied to each other so much
That in nothing we trust

God help me please, on my knees
Betrayed by lust
We lied to each other so much
Absolutely nothing we trust
Acordes para:
    Composição: Dave Mustaine / Tó Maria VinhasColaboração e revisão:
    • Vinícius Dias

    0 comentários

      mostrar mais comentários

      Conseguiu tocar?

      15tocaram0ainda não

      Grave um vídeo tocando Trust e mande pra gente!

      00:00 / 00:00
      outros vídeos desta música
      repetirqualidadeautomática
      Outro vídeos desta música
        00:00 / 00:00
        automática
        OK