Cifra Club

Aprenda

Youthanasia

Megadeth

Cifra: Principal (violão e guitarra)
tom: C#
Intro:
------
                                  Play 3x
eb---||--------------------------------||--------------------------------|
Bb---||--------------------------------||--------------------------------|
Gb---||--------------------------------||--------------------------------|
Db---||----------------------------5---||--------------------------------|
Ab---||2-----4-----5-----7-------------||2-----4-----5-----7-----8---9---|
Eb---||0-----2-----3-----5-----6/7-----||0-----2-----3-----5-----6---7---|

                             Play 3x
||--------------------------------||--------------------------------|
||--------------------------------||--------------------------------|
||--------------------------------||--------------------------------|
||--------------------------------||--------------------------------|
||--7-7---5-7---------------------||--7-7---5-7-------------------5-|
||0-----7-----7~~~~~~~5-3-5-6-5-3-||0-----7-----7~~~~~~~5-3-5-6-7---|
  . . . . . .         . . . . .     . . . . . .         . . .

Verse 1:
--------
                             Play 3x
||--------------------------------||--------------------------------|
||--------------------------------||--------------------------------|
||--------------------------------||--------------------------------|
||--------------------------------||--------------------------------|
||--7-7---5-7---------------------||--7-7---5-7-------------------5-|
||0-----7-----7~~~~~~~5-3-5-6-5-3-||0-----7-----7~~~~~~~5-3-5-6-7---|
  . . . . . .         . . . . .     . . . . . .         . . .

                             Play 3x
||--------------------------------||--------------------------------|
||--------------------------------||--------------------------------|
||--------------------------------||--------------------------------|
||--------------------------------||--------------------------------|
||--7-7---5-7---------------------||--7-7---5-7---------------------|
||0-----7-----7~~~~~~~5-3-5-6-5-3-||0-----7-----7-------------------|
  . . . . . .         . . . . .     . . . . . .

Chorus:
-------
                             Play 4x
||--------------------------------||
||--------------------------------||
||--------------------------------||
||----------------------------5---||
||2-----4-----5-----7-------------||
||0-----2-----3-----5-----6/7-----||

Verse 2:
--------
                             Play 3x
||--------------------------------||--------------------------------|
||--------------------------------||--------------------------------|
||--------------------------------||--------------------------------|
||--------------------------------||--------------------------------|
||--7-7---5-7---------------------||--7-7---5-7-------------------5-|
||0-----7-----7~~~~~~~5-3-5-6-5-3-||0-----7-----7~~~~~~~5-3-5-6-7---|
  . . . . . .         . . . . .     . . . . . .         . . .

                             Play 3x
||--------------------------------||--------------------------------|
||--------------------------------||--------------------------------|
||--------------------------------||--------------------------------|
||--------------------------------||--------------------------------|
||--7-7---5-7---------------------||--7-7---5-7---------------------|
||0-----7-----7~~~~~~~5-3-5-6-5-3-||0-----7-----7-------------------|
  . . . . . .         . . . . .     . . . . . .

Chorus:
-------
                             Play 3x
||--------------------------------|||--------------------------------|
||--------------------------------|||------------------__3__--__3__--|
||--------------------------------|||------------------|-T-|--|-T-|--|
||----------------------------5---|||------------------121212-111111-|
||2-----4-----5-----7-------------|||2-----4-----5-----101010-9-9-9--|
||0-----2-----3-----5-----6/7-----|||0-----2-----3-------------------|

Verse 3:
--------

||--------------------------------|--------------------------------|
||--------------------------------|--------------------------------|
||--------------------------------|--------------------------------|
||--------9-----------------------|--------9-----------------------|
||2-------7-------9-8-----9-12----|2-------7-------9-8------9-5----|
||0---------------7-6-----7-10----|0---------------7-6------7-3----|

                                                             Play 2x
|--------------------------------|--------------------------------||
|--------------------------------|--------------------------------||
|--------------------------------|--------------------------------||
|--------9-----------------------|--------9-----------------------||
|2-------7-------9-8-----9-12----|2-------7-------9-8-------------||
|0---------------7-6-----7-10----|0---------------7-6-------------||

Double Time: (Sort of thing)
------------
                                                              Play 3x
||--------------------------------|--------------------------------||
||--------------------------------|--------------------------------||
||--------------------------------|--------------------------------||
||-----------h-p-h-p-h-p-h-p-h----|-----------h-p-h-p-h-p-h--------||
||----------0-5-0-7-0-8-0-7-0-10--|----------0-5-0-7-0-8-0-7~~~~~~~||
||0-0---0-------------------------|0-0---0-------------------------||
  . .   .                          . .   .

||--------------------------------|--------------------------------||
||--------------------------------|--------------------------------||
||--------------------------------|--------------------------------||
||-----------h-p-h-p-h-p-h-p-h----|-----------h-p------------------||
||----------0-5-0-7-0-8-0-7-0-10--|----------0-5-0-5-----6-----7---||
||0-0---0-------------------------|0-0---0---------3-----4-----5---||
  . .   .                          . .   .

Lead Solo:
----------

||--------------------------------|--------------------------------|
||--------------------------------|--------------------------------|
||--------------------------------|--------------------------------|
||--------------------------------|4-------------------------------|
||2-------------------------------|2-------------------------------|
||0-------------------------------|--------------------------------|

                                                             Play 4x
|--------------------------------|--------------------------------||
|--------------------------------|--------------------------------||
|--------------------------------|--------------------------------||
|3-------------------------------|--------------------------------||
|1-------------------------------|5---------------5-----6-----7---||
|--------------------------------|3---------------3-----4-----5---||

Bridge:
-------

|--------------------------------|--------------------------------|
|--------------------------------|--------------------------------|
|--------------------------------|--------------------------------|
|--------------------------------|--------------------------------|
|--------------------------------|----------------5-----6-----7---|
|0-0---0---0-0---0-0---0---0-0---|0-0---0---0-0---3-----4-----5---|
 . .   .   . .   . .   .   . .    . .   .   . .

|--------------------------------|--------------------------------|
|--------------------------------|--------------------------------|
|--------------------------------|--------------------------------|
|--------------------------------|--------------------------------|
|--------------------------------|----------------7-----6-----5---|
|0-0---0---0-0---0-0---0---0-0---|0-0---0---0-0---5-----4-----3---|
 . .   .   . .   . .   .   . .    . .   .   . .

|--------------------------------|--------------------------------|
|--------------------------------|--------------------------------|
|--------------------------------|--------------------------------|
|--------------------------------|--------------------------------|
|--------------------------------|----------------5-----6-----7---|
|0-0---0---0-0---0-0---0---0-0---|0-0---0---0-0---3-----4-----5---|
 . .   .   . .   . .   .   . .    . .   .   . .

|--------------------------------|--------------------------------|
|--------------------------------|--------------------------------|
|--------------------------------|--------------------------------|
|--------------------------------|--------------------------------|
|--------------------------------|----------------7-----6-----5---|
|0-0---0---0-0---0-0---0---0-0---|0-0---0---0-0---5-----4-----3---|
 . .   .   . .   . .   .   . .    . .   .   . .

|--------------------------------|--------------------------------|
|--------------------------------|--------------------------------|
|--------------------------------|--------------------------------|
|--------------------------------|--------------------------------|
|--------------------------------|--------------------------------|
|--------------------------------|--------------------------------|

Tempo 1:
--------

Verse 4:
--------

||--------------------------------|--------------------------------|
||--------------------------------|--------------------------------|
||--------------------------------|--------------------------------|
||--------9-----------------------|--------9-----------------------|
||2-------7-------9-8-----9-12----|2-------7-------9-8------9-5----|
||0---------------7-6-----7-10----|0---------------7-6------7-3----|

                                                             Play 3x
|--------------------------------|--------------------------------||
|--------------------------------|--------------------------------||
|--------------------------------|--------------------------------||
|--------9-----------------------|--------9-----------------------||
|2-------7-------9-8-----9-12----|2-------7-------9-8-------------||
|0---------------7-6-----7-10----|0---------------7-6-------------||
Composição de Dave Mustaine
Colaboração e revisão:
  • felipe costa
5.318 exibições
    • ½ Tom
    • A
    • Bb
    • B
    • C
    • Db
    • D
    • Eb
    • E
    • F
    • F#
    • G
    • Ab
  • Adicionar à lista

    0 comentários

    Ver todos os comentários

    Conseguiu tocar?

    5 Tocaram 0 Ainda não

    Grave um vídeo tocando Youthanasia e nos envie!

    00:00 / 00:00
    outros vídeos desta música
    repetir qualidade Automático
    Outros vídeos desta música
    00:00 / 00:00
    Automático

    Cifra Club Pro

    Aproveite o Cifra Club com benefícios exclusivos e sem anúncios
    Cifra Club Pro
    Aproveite o Cifra Club com benefícios exclusivos e sem anúncios
    OK