Cifra Club

Ímpar

Melim

Cifra: Principal (violão e guitarra)
tom: Bb (forma dos acordes no tom de G) Capotraste na 3ª casa
[Intro] G  Em

[Dedilhado Intro]

Parte 1 de 4
   G
E|------------------------------------------|
B|------------------------------------------|
G|---0---0---0h2---2---0---0----------------|
D|---0-----0-----0-------0------------------|
A|------------------------------------------|
E|-3---3-----3-------3----------------------|

Parte 2 de 4
   G
E|------------------------------------------|
B|------------------------------------------|
G|---0---0---0h2---2---0---0----------------|
D|---0-----0-----0-------0------------------|
A|------------------------------------------|
E|-3---3-----3-------3----------------------|

Parte 3 de 4
   Em
E|------------------------------------------|
B|------------------------------------------|
G|---0---2---0h2---2---0---0----------------|
D|---2-----2-----2-------2------------------|
A|------------------------------------------|
E|-0---0-----0-------0----------------------|

Parte 4 de 4
   Em
E|------------------------------------------|
B|------------------------------------------|
G|---0---2---0h2---2---0---0----------------|
D|---2-----2-----2-------2------------------|
A|------------------------------------------|
E|-0---0-----0-------0----------------------|

[Primeira Parte]

 G                       
Fonte de amor é te olhar
 Em
Pérola mais rara
  G
Sua riqueza de detalhes
    Em
Me faz sorrir de graça

[Dedilhado - Pré-Refrão]

Parte 1 de 4
   C                   D        
E|------------------------------------------|
B|---1---------1----------3---------3-------|
G|-------0---------0----------0---------0---|
D|---------2---------2----------4---------4-|
A|-3---3-----3---3------5---5-----5---5-----|
E|------------------------------------------|

Parte 2 de 4
   Bm7                  Em        
E|------------------------------------------|
B|---0---------0----------0---------0-------|
G|-------2---------2----------0---------0---|
D|---------0---------0----------2---------2-|
A|-2---2-----2---2--------------------------|
E|----------------------0---0-----0---0-----|

Parte 3 de 4
   C                   D       
E|------------------------------------------|
B|---1---------1----------3---------3-------|
G|-------0---------0----------0---------0---|
D|---------2---------2----------4---------4-|
A|-3---3-----3---3------5---5-----5---5-----|
E|------------------------------------------|

Parte 4 de 4
   D                    D
E|------------------------------------------|
B|---3---------3--------2-------------------|
G|-------0---------0----0-------------------|
D|---------4---------4--4-------------------|
A|-5---5-----5---5------5-------------------|
E|------------------------------------------|

[Pré-Refrão]

       C                          D
Encabulado, o sol rosado se escondeu
          Bm7  Em
Só de pirraça
      C                        D
Enciumado, pois o foco é todo seu
             D
E o resto embaça

[Refrão]

G                           Em
Ah, ah, ah, ah, ah, ah, ah, ah
            C                   D
É mara te amar, maravilhoso gostar
                  G         Em7
E quem é que não gosta de amar?
                C               
Afoguei no seu mar, quero ser o seu
 D          G      
Par, você é ímpar

[Dedilhado]

Parte 1 de 4
   G
E|------------------------------------------|
B|------------------------------------------|
G|---0---0---0h2---2---0---0----------------|
D|---0-----0-----0-------0------------------|
A|------------------------------------------|
E|-3---3-----3-------3----------------------|

Parte 2 de 4
   G
E|------------------------------------------|
B|------------------------------------------|
G|---0---0---0h2---2---0---0----------------|
D|---0-----0-----0-------0------------------|
A|------------------------------------------|
E|-3---3-----3-------3----------------------|

Parte 3 de 4
   Em
E|------------------------------------------|
B|------------------------------------------|
G|---0---2---0h2---2---0---0----------------|
D|---2-----2-----2-------2------------------|
A|------------------------------------------|
E|-0---0-----0-------0----------------------|

Parte 4 de 4
   Em
E|------------------------------------------|
B|------------------------------------------|
G|---0---2---0h2---2---0---0----------------|
D|---2-----2-----2-------2------------------|
A|------------------------------------------|
E|-0---0-----0-------0----------------------|

               Em
Tchuru-tchu-tchu

[Dedilhado - Pré-Refrão]

Parte 1 de 4
   C                   D        
E|------------------------------------------|
B|---1---------1----------3---------3-------|
G|---0---0-----0---0------0---0-----0---0---|
D|---------2---------2----------4---------4-|
A|-3---3-----3---3------5---5-----5---5-----|
E|------------------------------------------|

Parte 2 de 4
   Bm7                  Em        
E|------------------------------------------|
B|---0---------0----------0---------0-------|
G|---0---2-----0---2------0---0-----0---0---|
D|---------0---------0----------2---------2-|
A|-2---2-----2---2--------------------------|
E|----------------------0---0-----0---0-----|

Parte 3 de 4
   C                   D       
E|------------------------------------------|
B|---1---------1----------3---------3-------|
G|---0---0-----0---0------0---0-----0---0---|
D|---------2---------2----------4---------4-|
A|-3---3-----3---3------5---5-----5---5-----|
E|------------------------------------------|

Parte 4 de 4
   D                    D
E|------------------------------------------|
B|---3---------3----------------------------|
G|---0-----0---0-----0----0-2---------------|
D|-------4---------4----4-------------------|
A|-5---5-----5---5------5-5-5---------------|
E|------------------------------------------|

[Pré-Refrão]

       C                          D
Encabulado, o sol rosado se escondeu
          Bm7  Em
Só de pirraça
      C                        D
Enciumado, pois o foco é todo seu
             D
E o resto embaça

[Refrão]

G                           Em
Ah, ah, ah, ah, ah, ah, ah, ah
            C                   D
É mara te amar, maravilhoso gostar
                  G         Em
E quem é que não gosta de amar?
                C               
Afoguei no seu mar, quero ser o seu
 D               
Par

[Ponte]

        C      
Quanto vale o seu abraço?
          D                        Em
Não tem preço, é inestimável, pérola
                  D 
Difícil de encontrar
         C
Não desgrudo do seu lado
         D                       Em  C
Sem teu beijo eu naufrago nesse mar

[Refrão]

G                           Em
Ah, ah, ah, ah, ah, ah, ah, ah
            C                   D
É mara te amar, maravilhoso gostar
                  G         Em
E quem é que não gosta de amar?
                C               
Afoguei no seu mar, quero ser o seu
 D          G      
Par, você é ímpar
00:00 / 00:00
Outros vídeos desta música
Repetir
Outros vídeos desta música
Composição de Diogo Melim / Gabriel Cantini / Rodrigo Melim
Colaboração e revisão:
  • Rafael Brito
1.122 exibições
    • ½ Tom
    • A
    • Bb
    • B
    • C
    • Db
    • D
    • Eb
    • E
    • F
    • F#
    • G
    • Ab
  • Adicionar à lista

    0 comentários

    Ver todos os comentários

    Conseguiu tocar?

    0 Tocaram 0 Ainda não

    Grave um vídeo tocando Ímpar e nos envie!

    Entre para oCifra Club PRO

    Tenha acesso a benefícios exclusivos no App e no Site

    • Chega de anúncios

    • Prioridade de compra em lançamentos

    • Mais recursos no app do Afinador

    • Atendimento Prioritário

    • Descontos nos produtos Cifra Club

    • Ajude a produzir mais conteúdo

    00:00 / 00:00

    Cifra Club Pro

    Aproveite o Cifra Club com benefícios exclusivos e sem anúncios
    Cifra Club Pro
    Aproveite o Cifra Club com benefícios exclusivos e sem anúncios
    OK