Cifra Club

Tragaluz de plata

Merlin

Cifra: Principal (violão e guitarra)
tom: Bm
Intro: -0-2-4-2-5-6-7-6-5-3-2-4-1- En primera cuerda (La mas aguda)

                  D 
Para los que vienen del cielo
A 
Buscando aquí dentro
    G                 Bm     A 
El principio de la maldad
           D 
Desde hace siglos vigilan
   A 
Y saben que estamos
         G         Bm   A 
Sabiendo que ahí están.
        D            A 
Quisiera que además de pararse en el aire
       G            Bm   A 
Trataran de hablar conmigo
          D            A 
No me alcanzan sus luces como boyas del tiempo
G                   Bm        A 
Si muero antes de verlos bajar.


         Fm                                              C#m   F# 
E|-1-2-4-3-2-1----------------------------------------------5--|
B|-------------3-2-1-3-2-1---------------------------------4-4--|
G|------------------------3-2-1-3-2-1-3-2-1-3-2-1-3-2-1-3----3-1-|
D|-------------------------------------------------------------|
A|---------------------------------------------------------|
E|--------------------------------------------------------|

C#m                     G#m          C# 
Con sus cascos de plata tal vez sin suponer figuras raras
G  
Se hará la luz
 A          G    Bm   A     D              ver Abajo
Si son de color o de metal, hijos del sol
G  
Desde la cruz
A          G     Bm   A       D           ver Abajo
Saben que aquí algo anda mal y no es saber
G  
Es que al dragar
A     G     Bm    A    D          ver Abajo
Atravesando el umbral de la razón

A partir de aca es mas rapido

D                           A                 G  
De la razón ficticia que le permite al hombre creerse
         Bm  A 
El mismo centro
D                          A 
Después de elogiarse con sus propios errores
G                 Bm   A 
Perderá la llave de Dios.

Fin: D- A- G-  Bm- A 
       D          A            G                 Bm                    A 
E|-3-1-3-1-3----------------------------------------------------------|
B|--------------2-1-2-3-1-3-2-5-4-3-2-1-0-1-1---------------------1-3-1-3-1-3|
G|--------------------------------------| 1-0-1-2-3-1-3------------------
D|----------------------------------------------------------------------|
A|--------------------------------------------------------------------------|
E|--------------------------------------------------------------------------|

La sigo abajo, no me deja seguir
B|-3-5-3-5-6-6-6-6-6-5-5-4-5---------------------|

Ver abajo: E-------1-3-4-- 
B|-1-3-4--------|

La cancion es masomenos asi... tampoco es muy exacta que digamos...
pero si la quieren
sacar mejor los invito. GRACIAS MERLIN!
00:00 / 00:00
Outros vídeos desta música
Repetir
Outros vídeos desta música
Composição de Alejandro de Michele
1.676 exibições
    • ½ Tom
    • Am
    • Bbm
    • Bm
    • Cm
    • C#m
    • Dm
    • Ebm
    • Em
    • Fm
    • F#m
    • Gm
    • G#m
  • Adicionar à lista

    0 comentários

    Ver todos os comentários

    Conseguiu tocar?

    0 Tocaram 0 Ainda não

    Grave um vídeo tocando Tragaluz de plata e nos envie!

    Entre para oCifra Club PRO

    Tenha acesso a benefícios exclusivos no App e no Site

    • Chega de anúncios

    • Prioridade de compra em lançamentos

    • Mais recursos no app do Afinador

    • Atendimento Prioritário

    • Descontos nos produtos Cifra Club

    • Ajude a produzir mais conteúdo

    00:00 / 00:00

    Cifra Club Pro

    Aproveite o Cifra Club com benefícios exclusivos e sem anúncios
    Cifra Club Pro
    Aproveite o Cifra Club com benefícios exclusivos e sem anúncios
    OK