Cifra Club

Drawing Board

Mest

Cifra: Principal (violão e guitarra)
tom: B
[intro]

Riff1 Guitarra base
e|--------------------------|
B|--------------------------|
G|--------------------------|
D|---4-4---4-4---4-4---4-4--|
A|-22-2---------------------|
E|-------00-0--44-4--22-2---| 4x Na 3a vez entra o solo de intro

[solo1] Guitarra solo
e|------------------------------------------------|
B|--7b7-4----------------7b-44--------------------|
G|-4-----6-4--6/8-6-686-----6-4-6-6/8-8/9/8-686b--|
D|------------------------------------------------|
A|------------------------------------------------|
E|------------------------------------------------|

[VERSO]
riff1 [sem solo]
I can recall only this one time
this kind of control, a girl had on my mind
 B            F#  E       F#
i've fallen deep i can't get out
    E             F#
I've never acted this way before

[REFRAO] 
B            E
I've spent days and nights
G#       F#
in my bedroom
B          E        G#              F#
trying to write the perfect song to sing to you
B         E             G#            F#
write a song a day but she wont like it anyway
B                 E
back to the drawing board
            G#               F#               E    F#
with the words you've heard a million times before

[VERSO]
B          F#      E         F#     «« Todas as notas abafadas
Feelin alone and shes on my mind
B         F#           E           F#     «« Todas as notas abafadas
try to erase all the pain from that time
B            F#
shes breakin up
    E             F#
and i'm breakin down now
  E               F#
i'm headed out of this fucked up town

[REFRAO] 
B            E
I've spent days and nights
G#       F#
in my bedroom
B          E        G#              F#
trying to write the perfect song to sing to you
B         E             G#            F#
write a song a day but she wont like it anyway
B                 E
back to the drawing board
            G#               F#               E    
with the words you've heard a million times before
  F#
in your head

[VERSO]
riff2 **B F# G# G# F# E F#**
so love me so i can be myself again
now hate me so things seem normal in my head
i'm trying to break away this ball and chain
so hate me so things seem normal in my head
things seem normal in my head

[Solo]
    B    E     G#    F#   B   E    G#  F#         B F# G# G# F# E F#      B F# G# G# F# E F#
e|--------------------------------------------------------------------------------------------|
B|--7b7-4----------------7b-44-------------------12-11-12-12-11-12b-11--12-11-12-12-11-12b-11-|
G|-4-----6-4--6/8-6-686-----6-4-6-6/8-8/9/8-686b-11-11-11-11-11-9b------11-11-11-11-11-9b-----|
D|--------------------------------------------------------------------------------------------|
A|--------------------------------------------------------------------------------------------|
E|--------------------------------------------------------------------------------------------|

[PRE-REFRAO]
riff1 [sem solo]
I've spent days and nights
in my bedroom
trying to write the perfect song to sing to you

[REFRAO]
B            E
I've spent days and nights
G#       F#
in my bedroom
B          E        G#              F#
trying to write the perfect song to sing to you
B         E             G#            F#
write a song a day but she wont like it anyway
B                 E
back to the drawing board
            G#               F#               E    
with the words you've heard a million times before
  F#
in your head

i'm dead..
00:00 / 00:00
Outros vídeos desta música
Repetir
Outros vídeos desta música
Composição de Tony Lovato
Colaboração e revisão:
  • Daniel
2.752 exibições
    • ½ Tom
    • A
    • Bb
    • B
    • C
    • Db
    • D
    • Eb
    • E
    • F
    • F#
    • G
    • Ab
  • Adicionar à lista

    0 comentários

    Ver todos os comentários

    Conseguiu tocar?

    0 Tocaram 0 Ainda não

    Grave um vídeo tocando Drawing Board e nos envie!

    Entre para oCifra Club PRO

    Tenha acesso a benefícios exclusivos no App e no Site

    • Chega de anúncios

    • Prioridade de compra em lançamentos

    • Mais recursos no app do Afinador

    • Atendimento Prioritário

    • Descontos nos produtos Cifra Club

    • Ajude a produzir mais conteúdo

    00:00 / 00:00

    Cifra Club Pro

    Aproveite o Cifra Club com benefícios exclusivos e sem anúncios
    Cifra Club Pro
    Aproveite o Cifra Club com benefícios exclusivos e sem anúncios
    OK