Cifra Club

Am I Evil?

Metallica

Cifra: Principal
exibições 39.068
Tom: E
E|---------------------|
B|---------------------|
G|-9----7--9--10---12--|
D|-9----7--9--10---12--|
A|-7----5--7--8----10--|
E|-0-------------------|

E|---------------------------------------------------|
B|---------------------------------------------------|
G|---------------4---------4----------------------4--|
D|--2------------2---------2----------------------2--| (10x)
A|--2------------2---------2----------------------2--|
E|--0---0-0-0-0----0-0-0-0----0-0-0-0-0-0-0-0-0-0----|

E|--------------------------------------------------|
B|--------------------------------------------------|
G|--4----------4----------4-------------------------|
D|--2----------2----------2-----------7-7-7-7-7-7---| (4x)
A|--2----------2----------2-----------5-5-5-5-5-5---|
E|--0---0-0-0--0---0-0-0--0---0-0-0-----------------|

E|--------------------------------|
B|----------------------6--5--6---|
G|----------------4--3------------|
D|----------3--2------------------|
A|----2--1------------------------|
E|--0-----------------------------|

E|-----------------------------------------------------------------------|
B|-6/8--8/10--10/12---0^5^8-0^5^8-0^5^8-0^5^8-0^5^8-0^5^8-0^5^8-0^5^8----|
G|-----------------------------------------------------------------------|
D|-----------------------------------------------------------------------|
A|-----------------------------------------------------------------------|
E|-----------------------------------------------------------------------|

E|-------------------------------------------------------------------------|
B|-0^4^7-0^4^7-0^4^7-0^4^7-0^4^7-0^4^7-0^4^7-0^4^7-0^5^8-0^5^8-0^5^8-0^5^8-|
G|-------------------------------------------------------------------------|
D|-------------------------------------------------------------------------|
A|-------------------------------------------------------------------------|
E|-------------------------------------------------------------------------|

E|------------------------------------------------------------------------|
B|-0^7^10-0^7^10-0^5^8-0^5^8-0^4^7-0^4^7-0^4^7-0^4^7-0^4^7-0^4^7-0^4^7----|
G|------------------------------------------------------------------------|
D|------------------------------------------------------------------------|
A|------------------------------------------------------------------------|
E|------------------------------------------------------------------------|

E|------------------------------|
B|------(7)---------------------|
G|--(7)-------------------------|
D|------------(12)--------------|
A|--------(12)---------(7)------|
E|------------------(7)---------|

Riff Principal:
E|-------------------------------------------------------------------|
B|-------------------------------------------------------------------|
G|-------------------------------------------------------------------|
D|-------------------------------------------------------------------|
A|-------------5--------7-----------8----7---------------------------|
E|-0--0--0--0--3--0--0--5--0--0--0--6----5---------------------------|

Pré-Refrão:
E|-------------------------------------------------------------------|
B|-------------------------------------------------------------------|
G|-------------------------------------------------------------------|
D|-----------7-------9---------10--9---------------------------------|
A|-----------5-------7---------8---7---------------------------------|
E|--7-7-7-7-----7-7-----7-7-7----------------------------------------|

Refrão:
E|-------------------------------------------------------------------|
B|-------------------------------------------------------------------|
G|-------------------------------------------------------------------|
D|-------------------------------------------------------------------|
A|-------------5--------7-----------8----7---------------------------|
E|-0--0--0--0--3--0--0--5--0--0--0--6----5---------------------------|

E|----------------------------------------------------------|
B|----------------------------------------------------------|
G|----------------------------------------------------------|
D|-9---7---5------------------------------------------------|
A|-7---5---3-------------------5--------7-----------8----7--|
E|-----------------0--0--0--0--3--0--0--5--0--0--0--6----5--|

E|--------------------------------------------------------------------|
B|--------------------------------------------------------------------|
G|--------------------------------------------------------------------|
D|-9---7---5-----9---7---5-----9---7---5------------------------------|
A|-7---5---3-----7---5---3-----7---5---3-----7--9--10\7---------------|
E|--------------------------------------------------------------------|

E|------------------------------------------------------------------------|
B|------------------------------------------------------------------------|
G|------------------------------------------------------------------------|
D|-2----------2----------2--------------7---2----------2----------2--5----|
A|-0--0-0-0-0-0--0-0-0-0-0--0-0-0-0--5--5---0--0-0-0-0-0--0-0-0-0-0--3--5-|
E|-----------------------------------3----------------------------------3-|

E|--------------------------------------------------------------------|
B|--------------------------------------------------------------------|
G|------------------------------7------------------------------7--7---|
D|------------------------------7------------------------------7--7---|
A|------------------------------5------------------------------5--5---|
E|-0--0-0-0-0--0-0-0-0--0-0-0-0---0--0-0-0-0--0-0-0-0--0-0-0-0--------|

E|---------------------------------------------------------------------|
B|---------------------------------------------------------------------|
G|------------------------------7------------------------------7--7--7-|
D|------------------------------7------------------------------7--7--7-|
A|------------------------------5------------------------------5--5--5-|
E|-0--0-0-0-0--0-0-0-0--0-0-0-0---0--0-0-0-0--0-0-0-0--0-0-0-0---------|

E|------------------------------------------------------------------------|
B|------------------------------------------------------------------------|
G|------------------------------------------------------------------------|
D|-2----------2----------2--------------7---2----------2----------2--5----|
A|-0--0-0-0-0-0--0-0-0-0-0--0-0-0-0--5--5---0--0-0-0-0-0--0-0-0-0-0--3--5-|
E|-----------------------------------3----------------------------------3-|

E|------------------------------------------------------------------------|
B|------------------------------------------------------------------------|
G|------------------------------------------------------------------------|
D|-2----------2----------2--------------7---2----------2----------2--5----|
A|-0--0-0-0-0-0--0-0-0-0-0--0-0-0-0--5--5---0--0-0-0-0-0--0-0-0-0-0--3--5-|
E|-----------------------------------3----------------------------------3-|

E|-----------------------------|
B|-----------------------------|
G|-----------------------------|
D|-----------------------------|
A|-2------5--7-----------------|
E|-0------3--5-----------------|

Solo:

     B          p       B          H  P                 H  P
E|-------7----------------11-12-11^12^11----11-12-14-11^12^11---11----------|
B|-----------10^7-10-10^-----------------12-------------------12---12-11-10-|
G|-9^-----------------------------------------------------------------------|
D|--------------------------------------------------------------------------|
A|--------------------------------------------------------------------------|
E|--------------------------------------------------------------------------|

     S                P    p         P      P           P        B     p
E|------7--10-9-7--10^7------7------------------------------------7-------|
B|-7/10-----------------10^7---10-10^7-7-10^7---7-------------------10^7--|
G|--------------------------------------------9---9-7-9^7---7-7-9^--------|
D|--------------------------------------------------------9---------------|
A|------------------------------------------------------------------------|
E|------------------------------------------------------------------------|
Acordes para:
    Composição: Brian Tatler / Sean HarrisColaboração e revisão:
    • Wanderson Souza
    • Eduardo Rodrigues
    • Vinícius Silva

    0 comentários

      mostrar mais comentários

      Conseguiu tocar?

      12tocaram3ainda não

      Grave um vídeo tocando Am I Evil? e mande pra gente!

      00:00 / 00:00
      outros vídeos desta música
      repetirqualidadeautomática
      Outro vídeos desta música
        00:00 / 00:00
        automática
        OK