Cifra Club

Aprenda

Bleeding Me

Metallica

Cifra: Principal (violão e guitarra)
tom: Bb (forma dos acordes no tom de B) Afinação: Eb Ab Db Gb Bb Eb
Intro:
     
Eb|--------------------------------|--------------------------------|
Bb|--------------------------------|--------------------------------|
Gb|-------------------------------|--------------------------------|
Db|--------5-------------------5--|---------5----------------------|
Ab|-----5/7---5-7-------7-----5--7-|-----5/7---5-7-------7-----5----|
Eb|-0---------------0-----5-3------|-0---------------0-----53---3^-|
 
    
Eb|--------------------------------|--------------------------------|
Bb|--------------------------------|--------------------------------|
Gb|--------------------------------|--------------------------------|
Db|---------5-------------------5--|---------5---------------------|
Ab|-----5/7---5-7-------7-----5--7-|-----5/7---5-7-------5-----5----|
Eb|-0---------------0-----5-3------|-0---------------3-----32---3^-|

  
Intro Fill
  
Eb|--------------------------------|--------------------------------|
Bb|-8-------8-------8-------8---7--|-8-------8-------8-------8---7--|
Gb|-------------------------------|---------------------------------|
Db|-------------------------------|---------------------------------|
Ab|--------------------------------|--------------------------------|
Eb|--------------------------------|--------------------------------|


Pre Chorus (the "Wo-ah  oh oh oh..." part)

        
Eb|-----------------------------------------------------------------|
Bb|-----------------------------------------------------------------|
Gb|-----------------------------------------------------------------|
Db|-7-h-9-X-9-------5-h-7-X-7-------5-h-7-X-7-----------------------|
Ab|--7-----X-7---X---5-----X-5---X---5-----X-5---X---5-h-7-X-7------|
Eb|--------------------------------------------------5-------5-X-3^-|


Chorus (the "Caught under wheels roll..." part)

  
Eb|-----------------------------------------------------------------|
Bb|-----------------------------------------------------------------|
Gb|-----------------------------------------------------------------|
Db|-9---9---9---X---5h7-7---7---X---5h7-7---7---X-------------------|
Ab|--7---7---7---X---5---5---5---X---5---5---5---X---7---7---7------|
Eb|--------------------------------------------------5---5---5-0-3^-|
   
Eb|-----------------------------------|
Bb|-----------------------------------|
Gb|-----------------------------5---o-|
Db|-7h9-----9-----7-----9-----5---5-o-|
Ab|--7---X-X-7-X-X-7-X-X-7-X-5--------|
Eb|-----------------------------------|
Composição de James Hetfield / Kirk Hammett / Lars Ulrich
Colaboração e revisão:
  • leoneo vasques
  • Pentelho Lapa
  • Bruno
35.739 exibições
    • ½ Tom
    • A
    • Bb
    • B
    • C
    • Db
    • D
    • Eb
    • E
    • F
    • F#
    • G
    • Ab
  • Adicionar à lista

    0 comentários

    Ver todos os comentários

    Conseguiu tocar?

    4 Tocaram 0 Ainda não

    Grave um vídeo tocando Bleeding Me e nos envie!

    00:00 / 00:00
    outros vídeos desta música
    repetir qualidade Automático
    Outros vídeos desta música
    00:00 / 00:00
    Automático

    Cifra Club Pro

    Aproveite o Cifra Club com benefícios exclusivos e sem anúncios
    Cifra Club Pro
    Aproveite o Cifra Club com benefícios exclusivos e sem anúncios
    OK