Cifra Club

Bleeding Me

Metallica

Cifra: Principal
exibições 33.768
Tom: A# (com acordes na forma de B) Afinação: Eb Ab Db Gb Bb Eb
Intro:
     
Eb|--------------------------------|--------------------------------|
Bb|--------------------------------|--------------------------------|
Gb|-------------------------------|--------------------------------|
Db|--------5-------------------5--|---------5----------------------|
Ab|-----5/7---5-7-------7-----5--7-|-----5/7---5-7-------7-----5----|
Eb|-0---------------0-----5-3------|-0---------------0-----53---3^-|
 
    
Eb|--------------------------------|--------------------------------|
Bb|--------------------------------|--------------------------------|
Gb|--------------------------------|--------------------------------|
Db|---------5-------------------5--|---------5---------------------|
Ab|-----5/7---5-7-------7-----5--7-|-----5/7---5-7-------5-----5----|
Eb|-0---------------0-----5-3------|-0---------------3-----32---3^-|

  
Intro Fill
  
Eb|--------------------------------|--------------------------------|
Bb|-8-------8-------8-------8---6--|-8-------8-------8-------8---6--|
Gb|-------------------------------|---------------------------------|
Db|-------------------------------|---------------------------------|
Ab|--------------------------------|--------------------------------|
Eb|--------------------------------|--------------------------------|


Pre Chorus (the "Wo-ah  oh oh oh..." part)

        
Eb|-----------------------------------------------------------------|
Bb|-----------------------------------------------------------------|
Gb|-----------------------------------------------------------------|
Db|-7-h-9-X-9-------5-h-7-X-7-------5-h-7-X-7-----------------------|
Ab|--7-----X-7---X---5-----X-5---X---5-----X-5---X---5-h-7-X-7------|
Eb|--------------------------------------------------5-------5-X-3^-|


Chorus (the "Caught under wheels roll..." part)

  
Eb|-----------------------------------------------------------------|
Bb|-----------------------------------------------------------------|
Gb|-----------------------------------------------------------------|
Db|-9---9---9---X---5h7-7---7---X---5h7-7---7---X-------------------|
Ab|--7---7---7---X---5---5---5---X---5---5---5---X---7---7---7------|
Eb|--------------------------------------------------5---5---5-0-3^-|
   
Eb|-----------------------------------|
Bb|-----------------------------------|
Gb|-----------------------------5---o-|
Db|-7h9-----9-----7-----9-----5---5-o-|
Ab|--7---X-X-7-X-X-7-X-X-7-X-5--------|
Eb|-----------------------------------|
Acordes para:
    Composição: James Hetfield / Kirk Hammett / Lars UlrichColaboração e revisão:
    • Pentelho Lapa
    • Bruno

    0 comentários

      mostrar mais comentários

      Conseguiu tocar?

      4tocaram0ainda não

      Grave um vídeo tocando Bleeding Me e mande pra gente!

      00:00 / 00:00
      outros vídeos desta música
      repetirqualidadeautomática
      Outro vídeos desta música
        00:00 / 00:00
        automática
        OK