Cifra Club

Blitzkrieg

Metallica

Cifra: Principal
exibições 11.735
Tom: E
Intro
----|----------------|----------------|----------------|--------|
----|----------------|----------------|----------------|--------|
----|----------------|----------------|----------------|--------|
7---|7s9-----9---7s9-|----9---7s9-----|----------------|----7---|
5---|5s7-----7---5s7-|----7---5s7-----|9---10------7---|----5---|
----|----0-0---0-----|0-0---0-----0-0-|7---8---0-0-5---|0-0-----|

----------------|----------------|----------------|--------|
----------------|----------------|----------------|--------|
----------------|----------------|----------------|--------|  4
7s9-----9---7s9-|----9---7s9-----|----------------|----7---|vezes
5s7-----7---5s7-|----7---5s7-----|9---10------7---|----5---|
----0-0---0-----|0-0---0-----0-0-|7---8---0-0-5---|0-0-----|

----------------|----------------|----------------|--------|
----------------|----------------|----------------|--------| 
----------------|----------------|----------------|--------|  
7s9-----9---7s9-|----9---7s9-----|----------------|--------| 
5s7-----7---5s7-|----7---5s7-----|9---10------7---|--------| 
----0-0---0-----|0-0---0-----0-0-|7---8---0-0-5---|0-0-12ss|

----------------|----------------|
----------------|----------------|
----------------|----------------|  3
----------------|----------------|vezes
----------------|----------------|
0-0-2-0-0-3-0-0-|2-0-0-3-0-0-2s3-|

----------------|----------------|
----------------|----------------|
----------------|----------------|
----------------|------------5s4-|
----------------|------------3s2-|
0-0-2-0-0-3-0-0-|2-0-0-3-0-0-----|

1.Let us have peace, let us have ..........
2.Save us from fate, save us from hate.......
----------------|----------------|----------------|----------------|
----------------|----------------|----------------|----------------|
----------------|----------------|----------------|----------------|
----------------|----------------|----------------|------------5s4-|
----------------|----------------|----------------|------------3s2-|
0-0-2-0-0-3-0-0-|2-0-0-3-0-0-2s3-|0-0-2-0-0-3-0-0-|2-0-0-3-0-0-----|

Let us have time, let the sun shine.......
Come to our need, hear our plea.........
----------------|----------------|----------------|----------------|
----------------|----------------|----------------|----------------|
----------------|----------------|----------------|----------------|
----------------|----------------|----------------|------------5s4-|
----------------|----------------|----------------|------------3s2-|
0-0-2-0-0-3-0-0-|2-0-0-3-0-0-2s3-|0-0-2-0-0-3-0-0-|2-0-0-3-0-0-----|

                 The day is coming        ......
                 The day is dawning       ......
----------------|----------------|----------------|----------------|
----------------|----------------|----------------|----------------|
----------------|----------------|----------------|----------------|
2---2---x-5s4-5-|--------4s5-4---|2---2---x-5s4-5-|--------4s5-7---|
0---0---x-3s2-3-|----3-3-2s3-2---|0---0---x-3s2-3-|----3-3-2s3-5---|
----------------|----------------|----------------|----------------|

                 Inferno coming             .....
                 Aliens coming              .....
----------------|----------------|----------------|----------------|
----------------|----------------|----------------|----------------|
----------------|----------------|----------------|----------------|
2---2---x-5s4-5-|--------4s5-4---|2---2---x-5s4-5-|--------4s5-7---|
0---0---x-3s2-3-|----3-3-2s3-2---|0---0---x-3s2-3-|----3-3-2s3-5---|
----------------|----------------|----------------|----------------|

Blitzkrieg
Blitzkrieg
----------------|----------------|----------------|--------|
----------------|----------------|----------------|--------|
----------------|----------------|----------------|--------|
7s9-----9---7s9-|----9---7s9-----|----------------|----7---|
5s7-----7---5s7-|----7---5s7-----|9---10------7---|----5---|
----0-0---0-----|0-0---0-----0-0-|7---8---0-0-5---|0-0-----|

----------------|----------------|----------------|--------|
----------------|----------------|----------------|--------|
----------------|----------------|----------------|--------|
7s9-----9---7s9-|----9---7s9-----|----------------|--------|
5s7-----7---5s7-|----7---5s7-----|9---10------7---|----9---|
----0-0---0-----|0-0---0-----0-0-|7---8---0-0-5---|0-0-7ss-|

Solo
F#5
--------------------------------|--------------------------------|
--------------------------------|------------------------2-----2-|
--------------------------------|--------2-----2-4--2--4----4----|
------------------------2-----2-|4---2-4-----4-------------------|
--------------2-4---2-4-----4---|--------------------------------|
2-2-2-2-5-2-5-----5-------------|--------------------------------|

--------2-----2-5p2-----------5-|2-------------------------------|
5-2-5-----5-2-------5-2-2-2-2---|2-------------------------------|
----------------------2-2-2-2---|----4---2-------2---4^------2---|
--------------------------------|------------5-------------------|
--------------------------------|--------------------------------|
--------------------------------|--------------------------------|

--------------------------------|--------------------------------|
5^--------r-^-----------5---3---|2-------2---3---232-----2--4----|
--------------------------------|----4---------------4------4--2-|
--------------------------------|--------------------------------|
--------------------------------|--------------------------------|
--------------------------------|--------------------------------|

--------------------------------|------------------------------4-|
--------------------------------|----------------------------7---|
4p-2----2-----------------------|--------------------------------|
------4----4--2-4p2-----2---4---|--------------------------------|
--------------------4-----------|4p2-----2---4---2---------------|
--------------------------------|----4-------------------2-------|

G#5
7p-4----4-----------------------|--------------------------------|
------7----7--4-7p-4----4-------|--------------------------------|
----------------------6----6--4-|6p-4----4-----------------------|
---3-------3--------------------|------6----6--4-6p-4----4-------|
--------------------------------|----------------------6----6--4-|
--------------------------------|--------------------------------|

--------------------------------|--------------------------------|
--------------------------------|--------------------------------|
--------------------------------|--------4-------------------4---|
--------------------------------|4-h-6-------6-------6p4---------|
6p-4----4-----------4-s-6-------|------------------------6-------|
------7----7--4-7---------------|--------------------------------|

--------------------------------|--------------------------------|
--------------------------------|--------------------------------|
6-6-6-6-7-7-7-7s9-9-9-9-7-7-7s9-|9-9-9-9-111111111313131311111113|
--------------------------------|--------------------------------|
--------------------------------|--------------------------------|
--------------------------------|--------------------------------|

--------------------------------|--------------------------------|
--------------------------------|------------16--19^-------------|
131313131414141416161616141416--|1816----18--------------16-ss---|
--------------------------------|----16------------------16-ss---|
--------------------------------|--------------------------------|
--------------------------------|--------------------------------|

Bb5
--------------------------------|--------------------------------|
--------------------------------|--------------------------------|
--------------------------------|--------------------------------|
--------------------------------|----------------6-------6---7---|
----------------4-------4---5---|----6---8-----------8-----------|
6-------6-----------6-----------|--------------------------------|

--------------------------------|----6-----------------------13--|
--------------------------------|--------9p6-----6-------14------|
----------------6-------6---8^--|------------8-----6-------------|
----8---8-----------8-----------|--------------------8-----------|
--------------------------------|--------------------------------|
--------------------------------|--------------------------------|

18-13---------------------------|--------------------------------|
------14--------14-ss-----------|--------------------------------|
--------15--------------14-ss---|8p-6----------------------------|
---3----------------------------|------8-6--8--------------------|
--------------------------------|--------------6-----------------|
--------------------------------|----------------9---------------|

--------------------------------|--------------------------------|
--------------------------------|--------------------------------|
---------------------------[6]--|--------^---r-----------^--ss---|
--------------------6---8-------|--------------------------------|
--------4---6---8---------------|--------------------------------|
4---6---------------------------|--------------------------------|

E5               C5               E5               C5
----------------|-<12>-----------|----------x-x-x-|----------------|
----------------|----------------|----------------|----------------|
9---------------|--------------9-|----------------|<12>------------|
----------------|----------------|----------------|----------------|
----------------|----------------|----------------|----------------|
----------------|----------------|----------------|----------------|

E5               C5               E5               C5
----------------|----------------|----------------|----------------|
----------------|----------------|----------------|----------------|
9----------<12>-|----------------|-<5>------------|<5>---------0---|
----------------|----------------|----------------|----------------|
----------------|----------------|----------------|----------------|
----------------|----------------|----------------|----------------|

E5               E5               C5               C5  B5  A5  G5
121212--12121212|12--12121212--12|121212--12121212|12--12121212--12|
121212--12121212|12--12121212--12|121212--12121212|12--12121212--12|
9-9-9---9-9-9-9-|9---9-9-9-9---9-|9-9-9---9-9-9-9-|9---9-9-9-9---9-|
----------------|----------------|----------------|----------------|4 
----------------|----------------|----------------|----------------| 
----------------|----------------|----------------|----------------|v
                |                |                |                |e
7-----10----7---|--10----7---10--|7-----10----1212|--10----7---10--|z
----------------|----------------|----------------|----------------|e
4-----7-----4---|--7-----4---7---|4-----7-----9-9-|--7-----4---7---|s
----------------|----------------|----------------|----------------|
----------------|----------------|----------------|----------------|
----------------|----------------|----------------|----------------|

----------------|----------------|----------------|----------------|
----------------|----------------|--------------5-|----6---6-5-----|
----------------|----------------|--------------5-|----5---5-5-----|  2
9---11--119---9-|----11--119---5-|5-5-7---3-2---5-|----5---5-5-----|vezes
7---7---7-7---7-|----7---7-7---3-|3-3-3-x-3-3-3-3-|3-3-3-3-3-3-3-3-|
0---0-0-0-0-0-0-|0-0-0-0-0-0-0---|----------------|----------------|

----------------|----------------|----------------|----------------|
----------------|----3---3-2-----|----------------|----------------|
2---------------|----2---2-2-----|----------------|----------------|
2---0-2-0-2---2-|----2---2-2-----|----------------|----------------|
0-----0---0-0-0-|0-0---0-----0---|----------------|--------3p2-----|
----------------|--------------0-|3-----2-----3---|--0-2-3-----3-2-|

----------------|----------------|----------------|----------------|
----------------|----------------|----------------|----------------| 
----------------|----------------|----------------|----------------|  2
----------------|----------------|----------------|----------------|vezes 
----------------|----------------|----------------|--------3p2-----| 
0-0-2-0-2-3-0-0-|2-0-0-3-0-0-2-3-|3-----2-----3---|--0-2-3-----3-2-|

---------------19-19---19-19-24-24-24---24-19---------------------|
------------------------------------------------------------------|
------------------------------------------------------------------|
------------------------------------------------------------------|
2-----------------------------------------------------------------|
0--------------------------------------------------x-ss-----------|
Acordes para:
    Composição: Jim Sirotto

    0 comentários

      mostrar mais comentários

      Conseguiu tocar?

      1tocaram0ainda não

      Grave um vídeo tocando Blitzkrieg e mande pra gente!

      00:00 / 00:00
      outros vídeos desta música
      repetirqualidadeautomática
      Outro vídeos desta música
        00:00 / 00:00
        automática
        OK