Cifra Club

Confusion

Metallica

Cifra: Principal
exibições 1.029
Tom: A
Intro:

Guit.1 (James):


E|--0----0----0-0-0-0----0----0----0-0-0-0-0-0-0
A|--2----2----2-2-2-2----2----2----2-2-2-2-2-2-2
D|----------------------------------------------
G|---------------------------------------------- (10x)
B|----------------------------------------------
E|----------------------------------------------


PM  .    .    . . . .    .    .    . . . . . . .   

E|--0----0----0-0-0-0----0----0----0-0-0-0-0-0-0
A|--2----2----2-2-2-2----2----2----2-2-2-2-2-2-2
D|----------------------------------------------
G|---------------------------------------------- (2x)
B|----------------------------------------------
E|----------------------------------------------


Guit.2 (Kirk):


E|--0---------------3-2-1
A|------3~--2~--1~-------
D|-----------------------
G|-----------------------    (4x) 
B|-----------------------
E|-----------------------

E|--0-----0-----0-1-0----
A|----3-2---2-1----------
D|-----------------------
G|-----------------------     (4x)
B|-----------------------
E|-----------------------

E|--0-----0-----0-1------
A|----3-2---2-1----------
D|-----------------------
G|-----------------------
B|-----------------------
E|-----------------------
-

PM  .    .    . . . .    .    .    . . . . . . .   

E|--0----0----0-0-0-0----0----0----0-0-0-0-0-0-0-
A|--2----2----2-2-2-2----2----2----2-2-2-2-2-2-2-
D|-----------------------------------------------
G|----------------------------------------------- (2x)
B|-----------------------------------------------
E|-----------------------------------------------

E|-----------------------------------0~
A|--7~---5---3~---5---8---7----5--7--2~
D|--9~---7---5~---7---10--9----7--9----
G|-------------------------------------
B|-------------------------------------
E|-------------------------------------


Parte 1 e 2:


PM       . . . . . . .                  .  . . .  . . . 

E|--\0---0-0-0-0-0-0-0----------3p0-----0--0-0-0--0-0-0--1-
A|--\2------------------1p0-1p0-----1p0------------------3-
D|---------------------------------------------------------
G|--------------------------------------------------------- 
B|---------------------------------------------------------
E|---------------------------------------------------------



PM      . . . . . . .                  .  . . .  . . . 

E|--0---0-0-0-0-0-0-0----------3p0-----0--0-0-0--0-0-0--1--
A|--2------------------1p0-1p0-----1p0------------------3--
D|---------------------------------------------------------
G|--------------------------------------------------------- (2x)
B|---------------------------------------------------------
E|---------------------------------------------------------

E|-----------------------------------0~-------
A|--7~---5---3~---5---8---7----5--7--2~-------
D|--9~---7---5~---7---10--9----7--9-----------
G|--------------------------------------------
B|------------------------------------------0~
E|--------------------------------------0~----

E|-----------------------------------0~-------
A|--7~---5---3~---5---8---7----5--7--2~-------
D|--9~---7---5~---7---10--9----7--9-----------
G|------------------------------------------0~
B|--------------------------------------0~----
E|--------------------------------------------

E|----------------------------------
A|-7~---5---3~~-----7~---5---3---2~~
D|-9~---7---5~~-----9~---7---5---4~~
G|---------------------------------- (2x)
B|----------------------------------
E|----------------------------------

E|-------------------------------------------------
A|-7~---5---3~~-----7~---5---3---5---8---7----5--7-
D|-9~---7---5~~-----9~---7---5---7---10--9----7--9-
G|-------------------------------------------------
B|-------------------------------------------------
E|-------------------------------------------------



PM      . . . . . . .                  .  . . .  . . . 

E|--0---0-0-0-0-0-0-0----------3p0-----0--0-0-0--0-0-0--1--
A|--2------------------1p0-1p0-----1p0------------------3--
D|---------------------------------------------------------
G|--------------------------------------------------------- (2x)
B|---------------------------------------------------------
E|---------------------------------------------------------



Refrão:


PM        . .

E|-3~-0---0-0--3--0--3--5--7-
A|----2--------5--2--5--7--9-
D|---------------------------
G|--------------------------- (2x)
B|---------------------------
E|---------------------------

E|-5---5--5--5--3--3--5--3--0-
A|-7---7--7--7--5--5--7--5--2-
D|----------------------------
G|----------------------------
B|----------------------------
E|----------------------------


PM        . .

E|-3~-0---0-0--3--0--3--5--7-
A|----2--------5--2--5--7--9-
D|---------------------------
G|--------------------------- (2x)
B|---------------------------
E|---------------------------

E|-5---5--5--5--3--3--5--3--0-
A|-7---7--7--7--5--5--7--5--2-
D|----------------------------
G|----------------------------
B|----------------------------
E|----------------------------

E|--------------------------------
A|-7~---5---3---5---8---7----5--7-
D|-9~---7---5---7---10--9----7--9-
G|--------------------------------
B|--------------------------------
E|--------------------------------



PM      . . . . . . .                  .  . . .  . . . 

E|--0---0-0-0-0-0-0-0----------3p0-----0--0-0-0--0-0-0--1--
A|--2------------------1p0-1p0-----1p0------------------3--
D|---------------------------------------------------------
G|--------------------------------------------------------- (2x)
B|---------------------------------------------------------
E|---------------------------------------------------------



Terceira parte:

PM . . . .      . . . .      . . . .      . . . .

E|-0-0-0-0--8---0-0-0-0--8---0-0-0-0--8---0-0-0-0-8---8---0~
A|----------6------------6------------6-----------6---6---2~
D|----------------------------------------------------------
G|---------------------------------------------------------- (3x)
B|----------------------------------------------------------
E|----------------------------------------------------------


Interlúdio/Solo


Guit.1 (James)


PM                          . .          . . . . .   . . . . .

E|---------------------6~~--0-0---5--6---0-0-0-0-0---0-0-0-0-0--
A|--5h7-7~-5-5h7-7-5h7------------7--8--------------------------
D|--------------------------------------------------------------
G|--------------------------------------------------------------
B|--------------------------------------------------------------
E|--------------------------------------------------------------


PM                          . .          . . . . .   . . . . .

E|---------------------6~~--0-0---5--3---0-0-0-0-0---0-0-0-0-0--
A|--5h7-7~-5-5h7-7-5h7------------7--5--------------------------
D|--------------------------------------------------------------
G|--------------------------------------------------------------
B|--------------------------------------------------------------
E|--------------------------------------------------------------


PM                          . .          . . . . .   . . . . .

E|---------------------6~~--0-0---5--6---0-0-0-0-0---0-0-0-0-0--
A|--5h7-7~-5-5h7-7-5h7------------7--8--------------------------
D|--------------------------------------------------------------
G|--------------------------------------------------------------
B|--------------------------------------------------------------
E|--------------------------------------------------------------

E|---------6----------5~--3--0- 
A|--5h7-7--8---5h7-7--7~--5--2-
D|-----------------------------
G|-----------------------------
B|-----------------------------
E|-----------------------------


Final:


E|--0-----0-----0-1-0----
A|----3-2---2-1----------
D|-----------------------
G|-----------------------     (2x)
B|-----------------------
E|-----------------------

E|--0------0------0-1-0----
A|--2--3-2-2--2-1-2-3-2----
D|-----5-4----4-3----------
G|-------------------------     (2x)
B|-------------------------
E|-------------------------

E|--0--0--0-0-0-0---0--0--0-0-0-0-0-0-0
A|--2--2--2-2-2-2---2--2--2-2-2-2-2-2-2
D|-------------------------------------
G|-------------------------------------
B|-------------------------------------
E|-------------------------------------
Acordes para:
    Composição: Hetfield /UlrichColaboração e revisão:
    • Pedro Henrique

    0 comentários

      mostrar mais comentários

      Conseguiu tocar?

      0tocaram0ainda não

      Grave um vídeo tocando Confusion e mande pra gente!

      00:00 / 00:00
      outros vídeos desta música
      repetirqualidadeautomática
      Outro vídeos desta música
        00:00 / 00:00
        automática
        OK