Cifra Club

DAMAGE, Inc.

Metallica

Cifra: Principal
exibições 20.151
Tom: E
Intro
||-----------------------------------------------------------------------------
||-----------------------------------------------------------------------------
||-----------------------------------------------------------------------------
||2--2--2-----2-----3--3--3-------2--2--2-----2-----3--3--3--3-----2--2--2----
||2--2--2-----2-----3--3--3-------2--2--2-----2-----3--3--3--3-----2--2--2----
||0--0--0-----0-----1--1--1-------0--0--0-----0-----1--1--1--1-----0--0--0----

--------------------------------------------------||
--------------------------------------------------||
--------------------------------------------------||
2--2--2--2--2-----3-3-3----2--2--2--2--2--2--2--2-||
2--2--2--2--2-----3-3-3----2--2--2--2--2--2--2--2-||
0--0--0--0--0-----1-1-1----0--0--0--0--0--0--0--0-||

P.M-------------------------------------------------|

||--------------------------------------------------------------------------------
||--------------------------------------------------------------------------------
||--------------------------------------------------------------------------------
||-------------------------------------------------------7/8-----7/8-----7/8------
||-------------------------------------------------------7/8-----7/8-----7/8------
||-0--0--0--0--0--0--0--0--0--0--0--0--0--0--0--0----5--------X-------X-----------

P.M-------------------------------------------------|

||-----------------------------------------------------------------------------
||-----------------------------------------------------------------------------
||-----------------------------------------------------------------------------
||-------------------------------------------------------7/8-----7/8-----7/8---
||-------------------------------------------------------7/8-----7/8-----7/8---
||-0--0--0--0--0--0--0--0--0--0--0--0--0--0--0--0----5--------X-------X--------

P.M-------------------------------------------------|

||-----------------------------------------------------------------------------
||-----------------------------------------------------------------------------
||-----------------------------------------------------------------------------
||-------------------------------------------------------7/8-----7/8-----7/8---
||-------------------------------------------------------7/8-----7/8-----7/8---
||-0--0--0--0--0--0--0--0--0--0--0--0--0--0--0--0----5--------X-------X--------

P.M-----------------------------------------------|        P.M
                                
--------------------------------------------------------------------------------||
--------------------------------------------------------------------------------||
--------------------------------------------------------------------------------||
------------------------------------------------------5\4--------5\4-------5/4--||
------------------------------------------------------5\4--------5\4-------5/4--||
2--2--2--2--2--2--2--2--2--2--2--2--2--2--2--2----3---------X----------X--------||

P.M-------------------------------------------------|

||-----------------------------------------------------------------------------
||-----------------------------------------------------------------------------
||-----------------------------------------------------------------------------
||-------------------------------------------------------7/8-----7/8-----7/8---
||-------------------------------------------------------7/8-----7/8-----7/8---
||-0--0--0--0--0--0--0--0--0--0--0--0--0--0--0--0----5--------X-------X--------

 
P.M-------------------------------------------------|

||-----------------------------------------------------------------------------
||-----------------------------------------------------------------------------
||-----------------------------------------------------------------------------
||-------------------------------------------------------7/8-----7/8-----7/8---
||-------------------------------------------------------7/8-----7/8-----7/8---
||-0--0--0--0--0--0--0--0--0--0--0--0--0--0--0--0----5--------X-------X--------

P.M-------------------------------------------------|

||-----------------------------------------------------------------------------
||-----------------------------------------------------------------------------
||-----------------------------------------------------------------------------
||-------------------------------------------------------7/8-----7/8-----7/8---
||-------------------------------------------------------7/8-----7/8-----7/8---
||-0--0--0--0--0--0--0--0--0--0--0--0--0--0--0--0----5--------X-------X--------


  P.M-----------------------------------------------|        P.M
                                
--------------------------------------------------------------------------------||
--------------------------------------------------------------------------------||
--------------------------------------------------------------------------------||
------------------------------------------------------5\4--------5\4-------5/4--||
------------------------------------------------------5\4--------5\4-------5/4--||
2--2--2--2--2--2--2--2--2--2--2--2--2--2--2--2----3---------3----------3--------||

                                  P.M----------------------------------------  
-----------------------------------------------------------------------------
-----------------------------------------------------------------------------
------4----------------------------------------------------------------------
------4-----5-----7-----5-----4--4--4--4--4--4--4--4--4--4--4--4--4--4--4--4-
------2-----5-----7-----5-----4--4--4--4--4--4--4--4--4--4--4--4--4--4--4--4-
------------3-----5-----3-----2--2--2--2--2--2--2--2--2--2--2--2--2--2--2--2-

  
||------------------------------------------------------------||
||------------------------------------------------------------||
||------------------------------------------------------------||
||---4--------------------------------------------------------||
||---4--------------------------------------------------------||
||---2--------------------------------------------------------||

                 P.M -----------------| 

||------------------------------------------------------------||
||------------------------------------------------------------||
||------------------------------------------------------------||
||------------------------------------------------------------||
||------8/5---------------------------------------------------||
||------6/3------0--0--0---0--0--0--0--0----------------------||

                 P.M -----------------| 

||------------------------------------------------------------||
||------------------------------------------------------------||
||------------------------------------------------------------||
||------------------------------------------------------------||
||------8/5---------------------------------------------------||
||------6/3------0--0--0---0--0--0--0--0----------------------||

                 P.M -----------------| 

||------------------------------------------------------------||
||------------------------------------------------------------||
||------------------------------------------------------------||
||------------------------------------------------------------||
||------8/5---------------------------------------------------||
||------6/3------0--0--0---0--0--0--0--0----------------------||


                  P.M -----------------| 

||------------------------------------------------------------||
||------------------------------------------------------------||
||------------------------------------------------------------||
||------------------------------------------------------------||
||------8/5---------------------------------------------------||
||------6/3------1--1--1---0--0--0--0--0----------------------||

                 P.M -----------------| 

||------------------------------------------------------------||
||------------------------------------------------------------||
||------------------------------------------------------------||
||------------------------------------------------------------||
||------8/5---------------------------------------------------||
||------6/3------0--0--0---0--0--0--0--0----------------------||

                 P.M -----------------| 

||------------------------------------------------------------||
||------------------------------------------------------------||
||------------------------------------------------------------||
||------------------------------------------------------------||
||------8/5---------------------------------------------------||
||------6/3------0--0--0---0--0--0--0--0----------------------||

                 P.M -----------------| 

||------------------------------------------------------------||
||------------------------------------------------------------||
||------------------------------------------------------------||
||------------------------------------------------------------||
||------8/5---------------------------------------------------||
||------6/3------0--0--0---0--0--0--0--0----------------------||

                 P.M -----------------| 

||------------------------------------------------------------||
||------------------------------------------------------------||
||------------------------------------------------------------||
||------------------------------------------------------------||
||------8/5---------------------------------------------------||
||------6/3------1--1--1---0--0--0--0--0----------------------||
                

||------------------------------------------------------------||
||------------------------------------------------------------||
||------------------------------------------------------------||
||------------------------------------------------------------||
||------8-----------------------------------------------------||
||------6-----------------------------------------------------||

                P.M -----------------| 

||------------------------------------------------------------||
||------------------------------------------------------------||
||------------------------------------------------------------||
||------------------------------------------------------------||
||------8/5---------------------------------------------------||
||------6/3------0--0--0---0--0--0--0--0----------------------||

                  P.M -----------------| 

||------------------------------------------------------------||
||------------------------------------------------------------||
||------------------------------------------------------------||
||------------------------------------------------------------||
||------8/5---------------------------------------------------||
||------6/3------0--0--0---0--0--0--0--0----------------------||

                 P.M -----------------| 

||------------------------------------------------------------||
||------------------------------------------------------------||
||------------------------------------------------------------||
||------------------------------------------------------------||
||------8/5---------------------------------------------------||
||------6/3------0--0--0---0--0--0--0--0----------------------||


                  P.M -----------------| 

||------------------------------------------------------------||
||------------------------------------------------------------||
||------------------------------------------------------------||
||------------------------------------------------------------||
||------8/5---------------------------------------------------||
||------6/3------1--1--1---0--0--0--0--0----------------------||

P.M -----------------| 

||------------------------------------------------------------||
||------------------------------------------------------------||
||------------------------------------------------------------||
||------------------------------------------------------------||
||------8/5---------------------------------------------------||
||------6/3------0--0--0---0--0--0--0--0----------------------||

P.M -----------------| 

||------------------------------------------------------------||
||------------------------------------------------------------||
||------------------------------------------------------------||
||------------------------------------------------------------||
||------8/5---------------------------------------------------||
||------6/3------0--0--0---0--0--0--0--0----------------------||

P.M -----------------| 

||------------------------------------------------------------||
||------------------------------------------------------------||
||------------------------------------------------------------||
||------------------------------------------------------------||
||------8/5---------------------------------------------------||
||------6/3------0--0--0---0--0--0--0--0----------------------||

P.M -----------------| 

||------------------------------------------------------------||
||------------------------------------------------------------||
||------------------------------------------------------------||
||------------------------------------------------------------||
||------8/5---------------------------------------------------||
||------6/3------0--0--0---0--0--0--0--0----------------------||

P.M ------------------------------------------| 

||------------------------------------------------------------||
||------------------------------------------------------------||
||------------------------------------------------------------||
||------------------------------------------------------------||
||------------------------------------------------------------||
||----10-10-10-10-10-10-10-10---6-6-6-6-6-6-6-6---------------||

                 P.M -----------------| 

||------------------------------------------------------------||
||------------------------------------------------------------||
||------------------------------------------------------------||
||------------------------------------------------------------||
||------8/5---------------------------------------------------||
||------6/3------0--0--0---0--0--0--0--0----------------------||

                 P.M -----------------| 

||------------------------------------------------------------||
||------------------------------------------------------------||
||------------------------------------------------------------||
||------------------------------------------------------------||
||------8/5---------------------------------------------------||
||------6/3------0--0--0---0--0--0--0--0----------------------||

                 P.M -----------------| 

||------------------------------------------------------------||
||------------------------------------------------------------||
||------------------------------------------------------------||
||------------------------------------------------------------||
||------8/5---------------------------------------------------||
||------6/3------0--0--0---0--0--0--0--0----------------------||
              
                P.M -----------------| 

||------------------------------------------------------------||
||------------------------------------------------------------||
||------------------------------------------------------------||
||------------------------------------------------------------||
||------8/5---------------------------------------------------||
||------6/3------1--1--1---0--0--0--0--0----------------------||

                 P.M -----------------| 

||------------------------------------------------------------||
||------------------------------------------------------------||
||------------------------------------------------------------||
||------------------------------------------------------------||
||------8/5---------------------------------------------------||
||------6/3------0--0--0---0--0--0--0--0----------------------||

                  P.M -----------------| 

||------------------------------------------------------------||
||------------------------------------------------------------||
||------------------------------------------------------------||
||------------------------------------------------------------||
||------8/5---------------------------------------------------||
||------6/3------0--0--0---0--0--0--0--0----------------------||

                 P.M -----------------| 

||------------------------------------------------------------||
||------------------------------------------------------------||
||------------------------------------------------------------||
||------------------------------------------------------------||
||------8/5---------------------------------------------------||
||------6/3------0--0--0---0--0--0--0--0----------------------||

P.M ---------------------------------------| 

||------------------------------------------------------------||
||------------------------------------------------------------||
||------------------------------------------------------------||
||------------------------------------------------------------||
||------------------------------------------------------------||
||--10-10-10-10-10-10-10-10--6-6-6-6-6-6-6-6------------------||

 

||------------------------------------------------------------||
||------------------------------------------------------------||
||---4-------------------------2------------------------------||
||---4---------5---------------2-----------5------------------||
||---2---------5---------------0-----------5------------------||
||-------------3---------------------------3------------------||

P.M----------------------------------------|   
---------------------------------------------------------------||
---------------------------------------------------------------||
---------------------------------------------------------------||
-4--4--4--4--4--4--4--4--4--4--4--4--4--4--4-------------------||
-2--2--2--2--2--2--2--2--2--2--2--2--2--2--2-------------------||
P.M-------------------------------------------|   
---------------------------------------------------------------||
---------------------------------------------------------------||
---------------------------------------------------------------||
-4--4--4--4--4--4--4--4--4--4--4--4--4--4--4--4----------------||
-2--2--2--2--2--2--2--2--2--2--2--2--2--2--2--2----------------||

||------------------------------------------------------------||
||------------------------------------------------------------||
||---4-------------------------2------------------------------||
||---4---------5---------------2-----------5------------------||
||---2---------5---------------0-----------5------------------||
||-------------3---------------------------3------------------||

P.M----------------------------------------|   
---------------------------------------------------------------||
---------------------------------------------------------------||
---------------------------------------------------------------||
-4--4--4--4--4--4--4--4--4--4--4--4--4--4--4-------------------||
-2--2--2--2--2--2--2--2--2--2--2--2--2--2--2-------------------||

  
---------------------------------------------------------------||
---------------------------------------------------------------||
---------------------------------------------------------------||
---4-----------------------------------------------------------||
---2-----------------------------------------------------------||

              

||--------------------------------------------------------------------------------||
||--------------------------------------------------------------------------------||
||--------------------------------------------------------------------------------||
||------2-------2------2-------------------2----2----2----2----2---2---2--2-------||
||------2-------2------2------3--3--3------2----2----2----2----2---2---2--2-------||
||------0-------0------0------1--1--1------0----0----0----0----0---0---0--0-------||

              P.M -----------------| 

||------------------------------------------------------------||
||------------------------------------------------------------||
||------------------------------------------------------------||
||------------------------------------------------------------||
||------8/5---------------------------------------------------||
||------6/3------0--0--0---0--0--0--0--0----------------------||

              P.M -----------------| 

||------------------------------------------------------------||
||------------------------------------------------------------||
||------------------------------------------------------------||
||------------------------------------------------------------||
||------8/5---------------------------------------------------||
||------6/3------0--0--0---0--0--0--0--0----------------------||

              P.M -----------------| 

||------------------------------------------------------------||
||------------------------------------------------------------||
||------------------------------------------------------------||
||------------------------------------------------------------||
||------8/5---------------------------------------------------||
||------6/3------0--0--0---0--0--0--0--0----------------------|| 

              P.M -----------------| 

||------------------------------------------------------------||
||------------------------------------------------------------||
||------------------------------------------------------------||
||------------------------------------------------------------||
||------8/5---------------------------------------------------||
||------6/3------1--1--1---0--0--0--0--0----------------------||

              P.M -----------------| 

||------------------------------------------------------------||
||------------------------------------------------------------||
||------------------------------------------------------------||
||------------------------------------------------------------||
||------8/5---------------------------------------------------||
||------6/3------0--0--0---0--0--0--0--0----------------------||

              P.M -----------------| 

||------------------------------------------------------------||
||------------------------------------------------------------||
||------------------------------------------------------------||
||------------------------------------------------------------||
||------8/5---------------------------------------------------||
||------6/3------0--0--0---0--0--0--0--0----------------------||

              P.M -----------------| 

||------------------------------------------------------------||
||------------------------------------------------------------||
||------------------------------------------------------------||
||------------------------------------------------------------||
||------8/5---------------------------------------------------||
||------6/3------0--0--0---0--0--0--0--0----------------------||

P.M ---------------------------------------| 

||------------------------------------------------------------||
||------------------------------------------------------------||
||------------------------------------------------------------||
||------------------------------------------------------------||
||------------------------------------------------------------||
||--10-10-10-10-10-10-10-10--6-6-6-6-6-6-6-6------------------||

       P.M -----------------| 

||------------------------------------------------------------||
||------------------------------------------------------------||
||------------------------------------------------------------||
||------------------------------------------------------------||
||------8/5---------------------------------------------------||
||------6/3------0--0--0---0--0--0--0--0----------------------||

       P.M -----------------| 

||------------------------------------------------------------||
||------------------------------------------------------------||
||------------------------------------------------------------||
||------------------------------------------------------------||
||------8/5---------------------------------------------------||
||------6/3------0--0--0---0--0--0--0--0----------------------||

       P.M -----------------| 

||------------------------------------------------------------||
||------------------------------------------------------------||
||------------------------------------------------------------||
||------------------------------------------------------------||
||------8/5---------------------------------------------------||
||------6/3------0--0--0---0--0--0--0--0----------------------||

       P.M -----------------| 

||------------------------------------------------------------||
||------------------------------------------------------------||
||------------------------------------------------------------||
||------------------------------------------------------------||
||------8/5---------------------------------------------------||
||------6/3------1--1--1---0--0--0--0--0----------------------||

       P.M -----------------| 

||------------------------------------------------------------||
||------------------------------------------------------------||
||------------------------------------------------------------||
||------------------------------------------------------------||
||------8/5---------------------------------------------------||
||------6/3------0--0--0---0--0--0--0--0----------------------||

       P.M -----------------| 

||------------------------------------------------------------||
||------------------------------------------------------------||
||------------------------------------------------------------||
||------------------------------------------------------------||
||------8/5---------------------------------------------------||
||------6/3------0--0--0---0--0--0--0--0----------------------||

       P.M -----------------| 

||------------------------------------------------------------||
||------------------------------------------------------------||
||------------------------------------------------------------||
||------------------------------------------------------------||
||------8/5---------------------------------------------------||
||------6/3------0--0--0---0--0--0--0--0----------------------||

P.M ---------------------------------------| 

||------------------------------------------------------------||
||------------------------------------------------------------||
||------------------------------------------------------------||
||------------------------------------------------------------||
||------------------------------------------------------------||
||--10-10-10-10-10-10-10-10--6-6-6-6-6-6-6-6------------------||

||------------------------------------------------------------||
||------------------------------------------------------------||
||---4-------------------------2------------------------------||
||---4---------5---------------2-----------5------------------||
||---2---------5---------------0-----------5------------------||
||-------------3---------------------------3------------------||

P.M----------------------------------------|   
---------------------------------------------------------------||
---------------------------------------------------------------||
---------------------------------------------------------------||
-4--4--4--4--4--4--4--4--4--4--4--4--4--4--4-------------------||
-2--2--2--2--2--2--2--2--2--2--2--2--2--2--2-------------------||
P.M-------------------------------------------|   
---------------------------------------------------------------||
---------------------------------------------------------------||
---------------------------------------------------------------||
-4--4--4--4--4--4--4--4--4--4--4--4--4--4--4--4----------------||
-2--2--2--2--2--2--2--2--2--2--2--2--2--2--2--2----------------||

||------------------------------------------------------------||
||------------------------------------------------------------||
||---4-------------------------2------------------------------||
||---4---------5---------------2-----------5------------------||
||---2---------5---------------0-----------5------------------||
||-------------3---------------------------3------------------||

P.M----------------------------------------|   
---------------------------------------------------------------||
---------------------------------------------------------------||
---------------------------------------------------------------||
-4--4--4--4--4--4--4--4--4--4--4--4--4--4--4-------------------||
-2--2--2--2--2--2--2--2--2--2--2--2--2--2--2-------------------||

  
---------------------------------------------------------------||
---------------------------------------------------------------||
---------------------------------------------------------------||
---4-----------------------------------------------------------||
---2-----------------------------------------------------------||

P.M----------------------------------------|   
---------------------------------------------------------------||
---------------------------------------------------------------||
---------------------------------------------------------------||
-4--4--4--4--4--4--4--4--4--4--4--4--4--4--4-------------------||
-2--2--2--2--2--2--2--2--2--2--2--2--2--2--2-------------------||
Acordes para:
    Composição: Cliff Burton / James Hetfield / Kirk Hammett / Lars UlrichColaboração e revisão:
    • Gabriel Henrique
    • gabriel henrique

    0 comentários

      mostrar mais comentários

      Conseguiu tocar?

      4tocaram0ainda não

      Grave um vídeo tocando DAMAGE, Inc. e mande pra gente!

      00:00 / 00:00
      outros vídeos desta música
      repetirqualidadeautomática
      Outro vídeos desta música
        00:00 / 00:00
        automática
        OK