Cifra Club

Devil's Dance

Metallica

Cifra: Principal
exibições 24.822
Tom: C#
1/2 tom abaixo: Eb Ab Db Gb Bb Eb 
 
|---------------------------------------| 
|---------------------------------------| 
|--------------------------------3------| 
|-3-2-2--2-2--2-2--2-2---3-2-2-2-3------| 
|-3-2-2--2-2--2-2--2-2---3-2-2-2-1------| 
|-1-0-0--0-0--0-0--0-0---1-0-0-0--------| 
 
|-------------------------------------------------| 
|-------------------------------------------------| 
|-------------------------------------------------| 
|-2-2--2-2--2-2--2-2---3-2-2-2-2--2-2-2-2-2-2-2-2-| 
|-2-2--2-2--2-2--2-2---3-2-2-2-2--2-2-2-2-2-2-2-2-| 
|-0-0--0-0--0-0--0-0---1-0-0-0-0--0-0-0-0-0-0-0-0-| 
 
|---------------------------------------------| 
|---------------------------------------------| 
|-------------2------0--2--3-3-3-3-3-3-0------| 
|-0-2-2-2-2-2------2----------------------2---| 
|---------------------------------------------| 
|---------------------------------------------| 
 
|-----------------------------------------------------------| 
|-----------------------------------------------------------| 
|-----------------------------------------------------------| 
|-2-2-2-2--2-2--2-2--2-2---2---2-2-2-2--2-2--2-2--2-2---2---| 
|-2-2-2-2--2-2--2-2--2-2---2---2-2-2-2--2-2--2-2--2-2---2---| 
|-0-0-0-0--0-0--0-0--0-0---0---0-0-0-0--0-0--0-0--0-0---0---| 
 
|---------------------------------------------| 
|---------------------------------------------| 
|-------------2------0--2--3-3-3-3-3-3-0------| 
|-0-2-2-2-2-2------2----------------------2---| 
|---------------------------------------------| 
|---------------------------------------------| 
 
|--------------------------------------------| 
|--------------------------------------------| 
|----------------2-----0--2--3-3-3-3-3-3-0---| 
|-0-2-2--2-2-2-2-----2---------------------2-| 
|--------------------------------------------| 
|--------------------------------------------| 
 
|----------------------------------| 
|----------------------------------| 
|-3-3-3-3-3-3-0---3-3-3-3-3-3-0----| 
|---------------2---------------2--| 
|----------------------------------| 
|----------------------------------| 
 
|---------------------------------------------------------| 
|---------------------------------------------------------| 
|---------------------------------------------------------| 
|-0-2-----------------------------------------------------| 
|-0-2-----------------------------------------------------| 
|---0-----------------------------------------------------| 
 
|----------------------------------------------------------------------| 
|----------------------------------------------------------------------| 
|----------------------------------------------------------------------| 
|-2-------2-------2-------2-------2-------2-------2-------2------------| 
|---1-------0-------1-------1-0-----1-------0-------1-------1-0-0--0---| 
|-------------------------------3---------------------------------3--3-| 
 
Verso: 
 
|----------------------------------------------------------------| 
|----------------------------------------------------------------| 
|----------------------------------------------------------------| 
|----------------------------------------------------------------| 
|-2-2--2-2--2-5----2--2--2--2-2--2-2--2-5-2--2--2--2-2--2-2--2-5-| 
|-0-0--0-0--0-3----0--0--0--0-0--0-0--0-3-0--0--0--0-0--0-0--0-3-| 
Hey...             I feel you too         feel            
 
|------------------------------------| 
|------------------------------------| 
|------------------------------------| 
|------------------------------------| 
|-2--2--2--2-2--2-2--2--5--0-1-0-----| 
|-0--0--0--0-0--0-0--0--3--------3---| 
The things you do. 
 
|--------------------------------------------------| 
|--------------------------------------------------| 
|--------------------------------------------------| 
|--------------------------------------------------| 
|-5-5--5-5--5-5--5--5--5--5-5--5-5--5-5--0-1-0-----| 
|-3-3--3-3--3-3--3--3--3--3-3--3-3--3-3--------3---| 
In your eyes I see the fire burns... 
 
|---------------------------------------------------------| 
|---------------------------------------------------------| 
|---------------------------------------------------------| 
|---------------------------------------------------------| 
|-2-2--2-2--2-2--2--5--2--2--2--2-2--2-2--2--5--0-1-0-----| 
|-0-0--0-0--0-0--0--3--0--0--0--0-0--0-0--0--3--------3---| 
 
|-----------------------------------------| 
|-----------------------------------------| 
|-----------------------------------------| 
|-----------------------------------------| 
|-5-5--5-5--5---5--5--5--4-4--4-4--4---4--| 
|-3-3--3-3--3---3--3--3--2-2--2-2--2---2--|
Acordes para:
    Composição: James Hetfield / Lars UlrichColaboração e revisão:
    • Hellektra

    0 comentários

      mostrar mais comentários

      Conseguiu tocar?

      2tocaram0ainda não

      Grave um vídeo tocando Devil's Dance e mande pra gente!

      00:00 / 00:00
      outros vídeos desta música
      repetirqualidadeautomática
      Outro vídeos desta música
        00:00 / 00:00
        automática
        OK