Cifra Club

Aprenda

Frantic

Metallica

Cifra: Principal (violão e guitarra)
tom: A
(intro palm mute)

(guitar 1)
E|----------------------------------------------------------------------------------------
B|----------------------------------------------------------------------------------------
G|----------------------------------------------------------------------------------------
D|----------------------------------------------------------------------------------------
A|----------------------------------------------------------------------------------------
E|--00000000000000003--00000000000000000003----0000000000000000003--000000000000000003-----

E|----------------------------------------------------------------------------------------
B|----------------------------------------------------------------------------------------
G|----------------------------------------------------------------------------------------
D|----------------------------------------------------------------------------------------
A|----------------------------------------------------------------------------------------
E|--00000000000000003---0000000000000000003-----000000000000000003---000000000000000003---

E|----------------------------------------------------------------------------------------
B|----------------------------------------------------------------------------------------
G|----------------------------------------------------------------------------------------
D|----------------------------------------------------------------------------------------
A|---9--6---8---6---------9----6-----8--6--------9---6---8---6---------9---6--8---6-------
E|----------------------------------------------------------------------------------------

E|----------------------------------------------------------------------------------------
B|----------------------------------------------------------------------------------------
G|----------------------------------------------------------------------------------------
D|----------------------------------------------------------------------------------------
A|---9--6---8---6---------9----6-----8--6--------9---6---8---6---------9---6--8---6-------
E|----------------------------------------------------------------------------------------

E|----------------------------------------------------------------------------------------
B|----------------------------------------------------------------------------------------
G|----------------------------------------------------------------------------------------
D|----------------------------------------------------------------------------------------
A|---9--6---8---6---------9----6-----8--6--------9---6---8---6---------9---6--8---6-------
E|----------------------------------------------------------------------------------------

E|----------------------------------------------------------------------------------------
B|----------------------------------------------------------------------------------------
G|----------------------------------------------------------------------------------------
D|----------------------------------------------------------------------------------------
A|---9--6---8---6---------9----6-----8--6--------9---6---8---6---------9---6--8---6-------
E|----------------------------------------------------------------------------------------

E|----------------------------------------------------------------------------------------
B|----------------------------------------------------------------------------------------
G|----------------------------------------------------------------------------------------
D|----------------------------------------------------------------------------------------
A|----------------------------------------------------------------------------------------
E|---18--15--17-17---------17-18--15--17-17-------18--17--15--17-17-17-18---0-0-0-0-0-----

E|----------------------------------------------------------------------------------------
B|----------------------------------------------------------------------------------------
G|----------------------------------------------------------------------------------------
D|----------------------------------------------------------------------------------------
A|----------------------------------------------------------------------------------------
E|---18--15--17-17---------17-18--15--17-17-------18--17--15--17-17-17-18---0-0-0-0-0-----

E|----------------------------------------------------------------------------------------
B|----------------------------------------------------------------------------------------
G|----------------------------------------------------------------------------------------
D|----------------------------------------------------------------------------------------
A|----------------------------------------------------------------------------------------
E|---18--15--17-17---------17-18--15--17-17-------18--17--15--17-17-17-18---0-0-0-0-0-----

E|----------------------------------------------------------------------------------------
B|----------------------------------------------------------------------------------------
G|----------------------------------------------------------------------------------------
D|----------------------------------------------------------------------------------------
A|----------------------------------------------------------------------------------------
E|---18--15--17-17---------17-18--15--17-17-------18--17--15--17-17-17-18---0-0-0-0-0-----

E|----------------------------------------------------------------------------------------
B|----------------------------------------------------------------------------------------
G|----------------------------------------------------------------------------------------
D|----------------------------------------------------------------------------------------
A|----------------------------------------------------------------------------------------
E|---18--15--17-17---------17-18--15--17-17-------18--17--15--17-17-17-18---0-0-0-0-0-----

(intro)

(guitar 2)
E|----------------------------------------------------------------------------------------
B|----------------------------------------------------------------------------------------
G|----------------------------------------------------------------------------------------
D|----------------2----------------------2----------------------2----------------------2--
A|----------------2----------------------2----------------------2----------------------2--
E|----------------0----------------------0----------------------0----------------------0--

E|----------------------------------------------------------------------------------------
B|----------------------------------------------------------------------------------------
G|----------------------------------------------------------------------------------------
D|----------------2----------------------2----------------------2----------------------2--
A|----------------2----------------------2----------------------2----------------------2--
E|----------------0----------------------0----------------------0----------------------0--

E|----------------------------------------------------------------------------------------
B|----------------------------------------------------------------------------------------
G|----------------------------------------------------------------------------------------
D|----------------------------------------------------------------------------------------
A|----------------------------------------------------------------------------------------
E|-----6---3--0000--5--00000---6--3---0000--5--00000----6-3---0000---5---6-3-0000--5--0000

E|----------------------------------------------------------------------------------------
B|----------------------------------------------------------------------------------------
G|----------------------------------------------------------------------------------------
D|----------------------------------------------------------------------------------------
A|----------------------------------------------------------------------------------------
E|-----6---3--0000--5--00000---6--3---0000--5--00000----6-3---0000---5---6-3-0000--5--0000

E|----------------------------------------------------------------------------------------
B|----------------------------------------------------------------------------------------
G|----------------------------------------------------------------------------------------
D|----------------------------------------------------------------------------------------
A|----------------------------------------------------------------------------------------
E|-----6---3--0000--5--00000---6--3---0000--5--00000----6-3---0000---5---6-3-0000--5--0000

E|----------------------------------------------------------------------------------------
B|----------------------------------------------------------------------------------------
G|----------------------------------------------------------------------------------------
D|----------------------------------------------------------------------------------------
A|----------------------------------------------------------------------------------------
E|-----6---3--0000--5--00000---6--3---0000--5--00000----6-3---0000---5---6-3-0000--5--0000

E|----------------------------------------------------------------------------------------
B|----------------------------------------------------------------------------------------
G|----------------------------------------------------------------------------------------
D|----------------------------------------------------------------------------------------
A|----------------------------------------------------------------------------------------
E|----------------------------------------------------------------------------------------

E|----------------------------------------------------------------------------------------
B|----------------------------------------------------------------------------------------
G|----------------------------------------------------------------------------------------
D|----------------------------------------------------------------------------------------
A|----9--6-8-8-----8-9-6-8-8----8-9-6-8-8---8-9--6~~~-------------------------------------
E|---------------------------------------------------------0--0--0-0--0-------------------

E|----------------------------------------------------------------------------------------
B|----------------------------------------------------------------------------------------
G|----------------------------------------------------------------------------------------
D|----------------------------------------------------------------------------------------
A|----9--6-8-8-----8-9-6-8-8----8-9-6-8-8---8-9--6~~~-------------------------------------
E|---------------------------------------------------------0--0--0-0--0-------------------

E|----------------------------------------------------------------------------------------
B|----------------------------------------------------------------------------------------
G|----------------------------------------------------------------------------------------
D|----------------------------------------------------------------------------------------
A|----9--6-8-8-----8-9-6-8-8----8-9-6-8-8---8-9--6~~~-------------------------------------
E|---------------------------------------------------------0--0--0-0--0-------------------

E|----------------------------------------------------------------------------------------
B|----------------------------------------------------------------------------------------
G|----------------------------------------------------------------------------------------
D|----------------------------------------------------------------------------------------
A|----9--6-8-8-----8-9-6-8-8----8-9-6-8-8---8-9--6~~~-------------------------------------
E|---------------------------------------------------------0--0--0-0--0-------------------

(verse 1 e 2)

(guitar 1 e guitar 2)
E|----------------------------------------------------------------------------------------
B|----------------------------------------------------------------------------------------
G|----------------------------------------------------------------------------------------
D|----------------------------------------------------------------------------------------
A|----------------------------------------------------------------------------------------
E|---6--3--0-0-0-0---6-3--0-0-0-0--6-3-0-0-0-0--6-3--0-0--0-0---6-3--0-0-0-0---6-3-0-0-0-0

E|----------------------------------------------------------------------------------------
B|----------------------------------------------------------------------------------------
G|----------------------------------------------------------------------------------------
D|----------------------------------------------------------------------------------------
A|----------------------------------------------------------------------------------------
E|---6--3--0-0-0-0---6-3--0-0-0-0---------------------------------------------------------

E|----------------------------------------------------------------------------------------
B|----------------------------------------------------------------------------------------
G|----------------------------------------------------------------------------------------
D|----------------------------------------------------------------------------------------
A|----------------------------------------------------------------------------------------
E|--0000000--5-000000-5--3-5-000000-5--000000-5--3-5--0000-6666-555-3333------------------

E|----------------------------------------------------------------------------------------
B|----------------------------------------------------------------------------------------
G|----------------------------------------------------------------------------------------
D|----------------------------------------------------------------------------------------
A|----------------------------------------------------------------------------------------
E|---6--3--0-0-0-0---6-3--0-0-0-0--6-3-0-0-0-0--6-3--0-0--0-0-----------------------------

YOU LIVE IT OR LIE IT...
E|----------------------------------------------------------------------------------------
B|----------------------------------------------------------------------------------------
G|----------------------------------------------------------------------------------------
D|----------------------------------------------------------------------------------------
A|----------------------------------------------------------------------------------------
E|---18--15--17-17---------17-18--15--17-17-------18--17--15--17-17--17-18-15-17-17-------

E|----------------------------------------------------------------------------------------
B|----------------------------------------------------------------------------------------
G|----------------------------------------------------------------------------------------
D|----------------------------------------------------------------------------------------
A|----------------------------------------------------------------------------------------
E|-17-18-15--17-17--000000-5--00000-6-3-00000-5-0000-6-3----------------------------------

KEEP ON SEARCHING....
E|----------------------------------------------------------------------------------------
B|----------------------------------------------------------------------------------------
G|---12^--9--11~~--------~12---9--11----14--12----------------14--12----------------------
D|-----------------------------------------------12--10~~---------------12--10------------
A|----------------------------------------------------------------------------------------
E|----------------------------------------------------------------------------------------

E|----------------------------------------------------------------------------------------
B|----------------------------------------------------------------------------------------
G|----------------------------------------------------------------------------------------
D|---17--14--16~~--------17--14--16~~----18--16--------------18--16-----------------------
A|------------------------------------------------17---15------------17--15---------------
E|----------------------------------------------------------------------------------------

FRANTIC TIC TIC TIC TIC TCHA...
E|----------------------------------------------------------------------------------------
B|----------------------------------------------------------------------------------------
G|----------------------------------------------------------------------------------------
D|----------------------------------------------------------------------------------------
A|----------------------------------------------------------------------------------------
E|---6666666-3-5-3-0-0-0-----6666666-3-5-3-0-0-0----6666666-3-5-3-5-5-5-------------------

E|----------------------------------------------------------------------------------------
B|----------------------------------------------------------------------------------------
G|----------------------------------------------------------------------------------------
D|----------------------------------------------------------------------------------------
A|----------------------------------------------------------------------------------------
E|---6666666-3-5-3-0-0-0------6666666-3-5-3-5-5-5--6666666-3-5-3-0-0-0------------------

E|----------------------------------------------------------------------------------------
B|----------------------------------------------------------------------------------------
G|----------------------------------------------------------------------------------------
D|----------------------------------------------------------------------------------------
A|----------------------------------------------------------------------------------------
E|---18--15--17-17---------17-18--15--17-17-------18--17--15--17-17-17-18---0-0-0-0-0-----

E|----------------------------------------------------------------------------------------
B|----------------------------------------------------------------------------------------
G|----------------------------------------------------------------------------------------
D|----------------------------------------------------------------------------------------
A|----------------------------------------------------------------------------------------
E|---18--15--17-17---------17-18--15--17-17-------18--17--15--17-17-17-18---0-0-0-0-0-----

(after verse 2)

(guitar 1)
E|----------------------------------------------------------------------------------------
B|----------------------------------------------------------------------------------------
G|----------------------------------------------------------------------------------------
D|----------------------------------------------------------------------------------------
A|----------------------------------------------------------------------------------------
E|------6---3----5--3----------6--3--5--3--------6--3---5--3--------6--3-5--3-------------

E|----------------------------------------------------------------------------------------
B|----------------------------------------------------------------------------------------
G|----------------------------------------------------------------------------------------
D|----------------------------------------------------------------------------------------
A|----------------------------------------------------------------------------------------
E|------6---3----5---3---------6-3--5--3--------6---3----5--3--------6--3--5--3-----------

E|----------------------------------------------------------------------------------------
B|----------------------------------------------------------------------------------------
G|----------------------------------------------------------------------------------------
D|----------------------------------------------------------------------------------------
A|----------------------------------------------------------------------------------------
E|------6---3----5---3---------6-3--5--3--------6---3----5--3--------6--3--5--3-----------

E|----------------------------------------------------------------------------------------
B|----------------------------------------------------------------------------------------
G|----------------------------------------------------------------------------------------
D|----------------------------------------------------------------------------------------
A|-----9--6--8--6------------9--6--8---6-----9---6--8--6------9-6-8--6-----9--6--8--6-----
E|----------------------------------------------------------------------------------------

E|----------------------------------------------------------------------------------------
B|----------------------------------------------------------------------------------------
G|----------------------------------------------------------------------------------------
D|----------------------------------------------------------------------------------------
A|-----9--6--8--6------------9--6--8---6-----9---6--8--6------9-6-8--6-----9--6--8--6-----
E|----------------------------------------------------------------------------------------

E|----------------------------------------------------------------------------------------
B|----------------------------------------------------------------------------------------
G|----------------------------------------------------------------------------------------
D|----------------------------------------------------------------------------------------
A|-----9--6--8--6------------9--6--8---6-----9---6--8--6------9-6-8--6-----9--6--8--6-----
E|----------------------------------------------------------------------------------------

E|----------------------------------------------------------------------------------------
B|----------------------------------------------------------------------------------------
G|----------------------------------------------------------------------------------------
D|----------------------------------------------------------------------------------------
A|-----9--6--8--6------------9--6--8---6-----9---6--8--6------9-6-8--6-----9--6--8--6-----
E|----------------------------------------------------------------------------------------

E|----------------------------------------------------------------------------------------
B|----------------------------------------------------------------------------------------
G|----------------------------------------------------------------------------------------
D|----------------------------------------------------------------------------------------
A|----------------------------------------------------------------------------------------
E|------6---3----5---3---------6-3--5--3--------6---3----5--3--------6--3--5--3-----------

E|----------------------------------------------------------------------------------------
B|----------------------------------------------------------------------------------------
G|----------------------------------------------------------------------------------------
D|----------------------------------------------------------------------------------------
A|----------------------------------------------------------------------------------------
E|--000000-5--00000-6-3-00000-5-0000-6-3-------000000-5--00000-6-3-00000-5-0000-6-3-------

KEEP ON SEARCHING....
E|----------------------------------------------------------------------------------------
B|----------------------------------------------------------------------------------------
G|---12^--9--11~~--------~12---9--11----14--12----------------14--12----------------------
D|-----------------------------------------------12--10~~---------------12--10------------
A|----------------------------------------------------------------------------------------
E|----------------------------------------------------------------------------------------

E|----------------------------------------------------------------------------------------
B|----------------------------------------------------------------------------------------
G|----------------------------------------------------------------------------------------
D|---17--14--16~~--------17--14--16~~----18--16--------------18--16-----------------------
A|------------------------------------------------17---15------------17--15---------------
E|----------------------------------------------------------------------------------------

FRANTIC TIC TIC TIC TIC TCHA...
E|----------------------------------------------------------------------------------------
B|----------------------------------------------------------------------------------------
G|----------------------------------------------------------------------------------------
D|----------------------------------------------------------------------------------------
A|----------------------------------------------------------------------------------------
E|---6666666-3-5-3-0-0-0-----6666666-3-5-3-0-0-0----6666666-3-5-3-5-5-5-------------------

E|----------------------------------------------------------------------------------------
B|----------------------------------------------------------------------------------------
G|----------------------------------------------------------------------------------------
D|----------------------------------------------------------------------------------------
A|----------------------------------------------------------------------------------------
E|---6666666-3-5-3-0-0-0------6666666-3-5-3-5-5-5--6666666-3-5-3-0-0-0------------------

E|----------------------------------------------------------------------------------------
B|----------------------------------------------------------------------------------------
G|----------------------------------------------------------------------------------------
D|---2----2----2---2----2---2----2---2---2---2--------------------------------------------
A|---2----2----2---2----2---2----2---2---2---2--------------------------------------------
E|---0----0----0---0----0---0----0---0---0---0--------------------------------------------

E|----------------------------------------------------------------------------------------
B|----------------------------------------------------------------------------------------
G|----------------------------------------------------------------------------------------
D|-----------------------------------3----------------------------------------------------
A|--3--1-3-1-3-1-3-1-3--1-3-1-3-1-3----3--------------------------------------------------
E|----------------------------------------------------------------------------------------

E|----------------------------------------------------------------------------------------
B|----------------------------------------------------------------------------------------
G|----------------------------------------------------------------------------------------
D|-----------------------------------3----------------------------------------------------
A|--3--1-3-1-3-1-3-1-3--1-3-1-3-1-3----3--------------------------------------------------
E|----------------------------------------------------------------------------------------

E|----------------------------------------------------------------------------------------
B|----------------------------------------------------------------------------------------
G|----------------------------------------------------------------------------------------
D|-----------------------------------3----------------------------------------------------
A|--3--1-3-1-3-1-3-1-3--1-3-1-3-1-3----3--------------------------------------------------
E|----------------------------------------------------------------------------------------

E|----------------------------------------------------------------------------------------
B|----------------------------------------------------------------------------------------
G|----------------------------------------------------------------------------------------
D|-----------------------------------3----------------------------------------------------
A|--3--1-3-1-3-1-3-1-3--1-3-1-3-1-3----3--------------------------------------------------
E|----------------------------------------------------------------------------------------

(after verse 2)

(guitar 2)
E|----------------------------------------------------------------------------------------
B|----------------------------------------------------------------------------------------
G|----------------------------------------------------------------------------------------
D|----------------------------------------------------------------------------------------
A|----------------------------------------------------------------------------------------
E|-000000000000000000000000000000000000000000000000000000000000000000000000000000000000000

E|----------------------------------------------------------------------------------------
B|----------------------------------------------------------------------------------------
G|----------------------------------------------------------------------------------------
D|----------------------------------------------------------------------------------------
A|----------------------------------------------------------------------------------------
E|-000000000000000000000000000000000000000000000000000000000000000000000000000000000000000

E|----------------------------------------------------------------------------------------
B|----------------------------------------------------------------------------------------
G|----------------------------------------------------------------------------------------
D|----------------------------------------------------------------------------------------
A|----------------------------------------------------------------------------------------
E|-000000000000000000000000000000000000000000000000000000000000000000000000000000000000000

E|----------------------------------------------------------------------------------------
B|----------------------------------------------------------------------------------------
G|----------------------------------------------------------------------------------------
D|----------------------------------------------------------------------------------------
A|----------------------------------------------------------------------------------------
E|-000000000000000000000000000000000000000000000000000000000000000000000000000000000000000

E|----------------------------------------------------------------------------------------
B|----------------------------------------------------------------------------------------
G|----------------------------------------------------------------------------------------
D|----------------------------------------------------------------------------------------
A|----------------------------------------------------------------------------------------
E|-000000000000000000000000000000000000000000000000000000000000000000000000000000000000000

E|----------------------------------------------------------------------------------------
B|----------------------------------------------------------------------------------------
G|----------------------------------------------------------------------------------------
D|----------------------------------------------------------------------------------------
A|----------------------------------------------------------------------------------------
E|-000000000000000000000000000000000000000000000000000000000000000000000000000000000000000

E|----------------------------------------------------------------------------------------
B|----------------------------------------------------------------------------------------
G|----------------------------------------------------------------------------------------
D|----------------------------------------------------------------------------------------
A|----------------------------------------------------------------------------------------
E|-000000000000000000000000000000000000000000000000000000000000000000000000000000000000000

E|----------------------------------------------------------------------------------------
B|----------------------------------------------------------------------------------------
G|----------------------------------------------------------------------------------------
D|-------------2-----------2------------2-------2-------2---------------------------------
A|-------------2-----------2------------2-------2-------2---------------------------------
E|--------000000------000000--------00000----0000----0000---------------------------------

KEEP ON SEARCHING....
E|----------------------------------------------------------------------------------------
B|----------------------------------------------------------------------------------------
G|---12^--9--11~~--------~12---9--11----14--12----------------14--12----------------------
D|-----------------------------------------------12--10~~---------------12--10------------
A|----------------------------------------------------------------------------------------
E|----------------------------------------------------------------------------------------

E|----------------------------------------------------------------------------------------
B|----------------------------------------------------------------------------------------
G|----------------------------------------------------------------------------------------
D|---17--14--16~~--------17--14--16~~----18--16--------------18--16-----------------------
A|------------------------------------------------17---15------------17--15---------------
E|----------------------------------------------------------------------------------------

FRANTIC TIC TIC TIC TIC TCHA...
E|----------------------------------------------------------------------------------------
B|----------------------------------------------------------------------------------------
G|----------------------------------------------------------------------------------------
D|----------------------------------------------------------------------------------------
A|----------------------------------------------------------------------------------------
E|---6666666-3-5-3-0-0-0-----6666666-3-5-3-0-0-0----6666666-3-5-3-5-5-5-------------------

E|----------------------------------------------------------------------------------------
B|----------------------------------------------------------------------------------------
G|----------------------------------------------------------------------------------------
D|----------------------------------------------------------------------------------------
A|----------------------------------------------------------------------------------------
E|---6666666-3-5-3-0-0-0------6666666-3-5-3-5-5-5--6666666-3-5-3-0-0-0------------------

E|----------------------------------------------------------------------------------------
B|----------------------------------------------------------------------------------------
G|----------------------------------------------------------------------------------------
D|---2----2----2---2----2---2----2---2---2---2--------------------------------------------
A|---2----2----2---2----2---2----2---2---2---2--------------------------------------------
E|---0----0----0---0----0---0----0---0---0---0--------------------------------------------

E|----------------------------------------------------------------------------------------
B|----------------------------------------------------------------------------------------
G|----------------------------------------------------------------------------------------
D|---2----2----2---2----2---2----2---2---2---2--------------------------------------------
A|---2----2----2---2----2---2----2---2---2---2--------------------------------------------
E|---0----0----0---0----0---0----0---0---0---0--------------------------------------------

E|----------------------------------------------------------------------------------------
B|----------------------------------------------------------------------------------------
G|----------------------------------------------------------------------------------------
D|---2----2----2---2----2---2----2---2---2---2--------------------------------------------
A|---2----2----2---2----2---2----2---2---2---2--------------------------------------------
E|---0----0----0---0----0---0----0---0---0---0--------------------------------------------

E|----------------------------------------------------------------------------------------
B|----------------------------------------------------------------------------------------
G|----------------------------------------------------------------------------------------
D|---2----2----2---2----2---2----2---2---2---2--------------------------------------------
A|---2----2----2---2----2---2----2---2---2---2--------------------------------------------
E|---0----0----0---0----0---0----0---0---0---0--------------------------------------------
Composição de Bob Rock / James Hetfield / Kirk Hammett / Lars Ulrich
Colaboração e revisão:
  • Victor Hugo
  • Morgan Carbonera
56.260 exibições
    • ½ Tom
    • A
    • Bb
    • B
    • C
    • Db
    • D
    • Eb
    • E
    • F
    • F#
    • G
    • Ab
  • Adicionar à lista

    0 comentários

    Ver todos os comentários

    Conseguiu tocar?

    7 Tocaram 0 Ainda não

    Grave um vídeo tocando Frantic e nos envie!

    00:00 / 00:00
    outros vídeos desta música
    repetir qualidade Automático
    Outros vídeos desta música
    00:00 / 00:00
    Automático

    Cifra Club Pro

    Aproveite o Cifra Club com benefícios exclusivos e sem anúncios
    Cifra Club Pro
    Aproveite o Cifra Club com benefícios exclusivos e sem anúncios
    OK