Cifra Club

Aprenda

Hardwired

Metallica

Cifra: Principal (violão e guitarra)
tom: G
Inicio
E|------------------------------|
B|------------------------------|
G|------------------------------|
D|------------------------------| x4
A|------------------------------|
E|--0-0-0--0-0-0--0-0-0--0-0-0--|

E|------------------------|-----------------------------|
B|------------------------|-----------------------------|
G|------------------------|-----------------------------|
D|------------------------|-----------------------------| x2
A|-----------9/8----------|-----------------------------|
E|--0-0-0--0-7/6-0--0-0-0-|-0-0-0--0-0-0--0-0-0--0-0-0--|

E|---------------------|---------------------------|
B|---------------------|---------------------------|
G|---------------------|---------------------------|
D|---------------------|---------------------------| x2
A|-----------9-8-----8-|-7-------------------------|
E|--0-0-0--0-7-6-0-0-6-|-5-0--0-0-0--0-0-0--0-0-0--|

E|---------------------|---------------------------|
B|---------------------|---------------------------|
G|---------------------|---------------------------|
D|---------------------|---------------------------| x2
A|-----------9-8-----8-|-7-------------------------|
E|--0-0-0--0-7-6-----6-|-5-0--0-0-0--0-0-0--0-0-0--|

E|------------------|-------------|----------------|-------------|
B|------------------|-------------|----------------|-------------|
G|------------------|-------------|----------------|-------------|
D|------------------|-------------|----------------|-------------|
A|----------9-8---8-|-7---9-8---8-|-7--------------|-2---9-8-----|
E|-0-0-0--0-7-6---6-|-5---7-6---6-|-5--3-5-6-5-3-5-|-0---7-6-----|

Riff Principal

E|--------------------------|-------------------|
B|--------------------------|-------------------|
G|--------------------------|-------------------|
D|--------------------------|-------------------| x4
A|--2---------9-8---------8-|-7-----------------|
E|--0-0-0-0-0-7-6-0-0-0-0-6-|-5-0-0-3-5-6-5-3-5-|

E|---------------|
B|---------------|
G|---------------|
D|---------------|
A|-7--7--7--7----|
E|-5--5--5--5----|

Versos

E|--------------------------|--------------------------------|
B|--------------------------|--------------------------------|
G|--------------------------|--------------------------------|
D|--------------------------|--------------------------------| x3
A|--2---------9-8---------8-|-7------------------------------|
E|--0-0-0-0-0-7-6-0-0-0-0-6-|-5-0-0-0-0-0-0-0-0-0-0-0-0-0-0--|

E|-------------------------|---------------------------|
B|-------------------------|---------------------------|
G|-------------------------|---------------------------|
D|-------------------------|---------------------------|
A|-2---------9-8---------8-|-7-------------------------|
E|-0-0-0-0-0-7-6-0-0-0-0-6-|-5-0-0-3--5--6--5--3--5----|

Refrão

E|-----------|------------|
B|-----------|------------|
G|-----------|------10----|
D|--7--------|-8----10----| x2
A|--7--------|-8----8-----|
E|--5--------|-6----8-----|

E|----------|--------------|
B|----------|--------------|
G|----------|--------------|
D|-7--------|--------------|
A|-7--------|-3--3--5------|
E|-5--------|-1--1--3------|

E|----------------------------|---------------|
B|----------------------------|---------------|
G|----------------------------|---------------|
D|----------------------------|---------------|
A|----------------------------|-2--9--8-------|
E|-0-0-0--0-0-0--0-0-0--0-0-0-|-0--7--6-------|

Riff

E|--------------------------|-----------------------|
B|--------------------------|-----------------------|
G|--------------------------|-----------------------|
D|--------------------------|-----------------------| x4
A|--2---------9-8---------8-|-7---------------------|
E|--0-0-0-0-0-7-6-0-0-0-0-6-|-5-0-0-3-5-6-5-3-5-----|

E|---------------|
B|---------------|
G|---------------|
D|---------------|
A|-7--7--7--7----|
E|-5--5--5--5----|

Versos

E|--------------------------|-----------------------------------|
B|--------------------------|-----------------------------------|
G|--------------------------|-----------------------------------|
D|--------------------------|-----------------------------------| x3
A|--2---------9-8---------8-|-7---------------------------------|
E|--0-0-0-0-0-7-6-0-0-0-0-6-|-5-0-0-0-0-0-0-0-0-0-0-0-0-0-0-----|

E|-------------------------|---------------------------|
B|-------------------------|---------------------------|
G|-------------------------|---------------------------|
D|-------------------------|---------------------------|
A|-2---------9-8---------8-|-7-------------------------|
E|-0-0-0-0-0-7-6-0-0-0-0-6-|-5-0-0-3--5--6--5--3--5----|

Refrão 

E|-----------|------------|
B|-----------|------------|
G|-----------|------10----|
D|--7--------|-8----10----| x2
A|--7--------|-8----8-----|
E|--5--------|-6----8-----|

E|----------|--------------|
B|----------|--------------|
G|----------|--------------|
D|-7--------|--------------|
A|-7--------|-3--3--5------|
E|-5--------|-1--1--3------|

E|-------------------------|---------------|
B|-------------------------|---------------|
G|-------------------------|---------------|
D|-------------------------|---------------|
A|-------------------------|-2---9-8-------|
E|-0-0-0-0-0-0-0-0-0-0-0-0-|-0---7-6-------|

Interlúdio 

E|---------------|--------------|--------------|-------------|
B|---------------|--------------|--------------|-------------|
G|---------------|--------------|--------------|-------------|
D|---------------|--------------|--------------|-------------|
A|----/7---------|---/7---------|---/7---------|-------------|
E|--0----5-6-3-5-|-0----5-6-3-5-|-0----5-6-3-5-|-6-5-3-5-3-1-|

E|--------------|--------------|--------------|---------------|
B|--------------|--------------|--------------|---------------|
G|--------------|--------------|--------------|---------------|
D|--------------|--------------|--------------|---------------| x2
A|---/7---------|---/7---------|---/7---------|-8---8-7-5-----|
E|-0----5-6-3-5-|-0----5-6-3-5-|-0----5-6-3-5-|-6---6-5-3-----|

Solo

E|-0-0-0-0-0-0-0-0-0-0-0-0-0-0-0-0-|-0-0-0-0-0-0-0-0-0-0-0-0-0-0-0-0---|
B|-5-5-5-5-5-5-5-5-5-5-5-5-5-5-5-5-|-3h5-5-5-5-5-5-5-5-5-5-5-5-5-5-5---|
G|---------------------------------|-----------------------------------|
D|---------------------------------|-----------------------------------|
A|---------------------------------|-----------------------------------|
E|---------------------------------|-----------------------------------|

E|---------------------------------|-------------------------|
B|-5-5p3p0-5-5p3p0-5-5p3p0-5-5p3p0-|-5-4-3-0-----------------|
G|---------------------------------|---------2p0--3p2p0------|
D|---------------------------------|--------------------2----|
A|---------------------------------|-------------------------|
E|---------------------------------|-------------------------|

E|---------------------|------------------------|
B|-12------------------|-12---------------------|
G|-12------------12-14-|-12------------12-14b16-|
D|-----14-14--14-------|-----14-14--14----------|
A|---------------------|------------------------|
E|---------------------|------------------------|

E|---------------------------------------------|------------------------------------------|
B|------12-15p12----12-15p12----12-15p12----12-|-15p12----12-15p12----12-15p12----12-15\--|
G|-(14)----------14----------14----------14----|-------14----------14----------14---------|
D|---------------------------------------------|------------------------------------------|
A|---------------------------------------------|------------------------------------------|
E|---------------------------------------------|------------------------------------------|

                                             
E|-15b17--15b17--15b17--15b17-|-15b19---|-15p12~~--|-------|
B|----------------------------|---------|----------|-------|
G|----------------------------|---------|----------|-------|
D|----------------------------|---------|----------|-------|
A|----------------------------|---------|----------|-x\----|
E|----------------------------|---------|----------|-x\----| 

Versos

E|----------------------------------|-------------------------|
B|----------------------------------|-------------------------|
G|----------------------------------|-------------------------|
D|----------------------------------|-------------------------| x4
A|----------------------------------|-------------------------|
E|--0-0-0-0-0-0-0-0-0-0-0-0-0-0-0-0-|-0-0-0-0-3-5-6-5-3-5-----|

E|--------------|--------------|--------------|----------------|
B|--------------|--------------|--------------|----------------|
G|--------------|--------------|--------------|----------------|
D|--------------|--------------|--------------|----------------|
A|---/7---------|---/7---------|---/7---------|----------------|
E|-0----5-6-3-5-|-0----5-6-3-5-|-0----5-6-3-5-|-6-5-3-5-3-1----|

E|--------------|--------------|--------------|----------------|
B|--------------|--------------|--------------|----------------|
G|--------------|--------------|--------------|----------------|
D|--------------|--------------|--------------|----------------|
A|---/7---------|---/7---------|---/7---------|---7-5-7-5-3----|
E|-0----5-6-3-5-|-0----5-6-3-5-|-0----5-6-3-5-|-6-5-3-5-3-1----|

E|----------------|
B|----------------|
G|----------------|
D|----------------|
A|-8-8-8-8-8-8----|
E|-6-6-6-6-6-6----|

Refrão

E|-----------|------------|
B|-----------|------------|
G|-----------|------10----|
D|--7--------|-8----10----| x2
A|--7--------|-8----8-----|
E|--5--------|-6----8-----|

E|----------|--------------|
B|----------|--------------|
G|----------|--------------|
D|-7--------|--------------|
A|-7--------|-3--3--5------|
E|-5--------|-1--1--3------|

E|-------------------------|-----|---------------|
B|-------------------------|-----|---------------|
G|-------------------------|-----|---------------|
D|-------------------------|-----|---------------|
A|-------------------------|-2---|-8--------7----|
E|-0-0-0-0-0-0-0-0-0-0-0-0-|-0---|-6--------5----|

E|--------------------------|-----------------------|
B|--------------------------|-----------------------|
G|--------------------------|-----------------------|
D|--------------------------|-----------------------| x4
A|--2---------9-8---------8-|-7---------------------|
E|--0-0-0-0-0-7-6-0-0-0-0-6-|-5-0-0-3-5-6-5-3-5-----|

E|------------|
B|------------|
G|------------|
D|------------|
A|-7-7-7-7----|
E|-5-5-5-5----|

Final

E|--------------------------|-----------------------|
B|--------------------------|-----------------------|
G|--------------------------|-----------------------|
D|--------------------------|-----------------------| x2
A|--2---------9-8---------8-|-7---------------------|
E|--0-0-0-0-0-7-6-0-0-0-0-6-|-5-0-0-3-5-6-5-3-5-----|

E|-------------------------|---------------|
B|-------------------------|---------------|
G|-------------------------|---------------|
D|-------------------------|---------------|
A|-------------------------|-2---9-8-------|
E|-0-0-0-0-0-0-0-0-0-0-0-0-|-0---7-6-------|


Letra (Hardwired)

In the name of desperation
In the name of wretched pain
In the name of all creation
Gone insane

We're so fucked
Shit outta luck
Hardwired to self destruct

On the way to paranoia
On the crooked borderline
On the way to great destroyer
Doom design

We're so fucked
Shit outta luck
Hardwired to self destruct

Once upon a planet burning
Once upon a flame
Once upon a fear returning
All in vain

Do you feel that hope is fading?
Do you comprehend?
Do you feel it terminating
In the end?

We're so fucked
Shit outta luck
Hardwired to self destruct

Hardwired to self destruct
Self destruct
Self destruct
Self destruct
Composição de James Hetfield / Lars Ulrich
Colaboração e revisão:
  • João Lima
10.264 exibições
    • ½ Tom
    • A
    • Bb
    • B
    • C
    • Db
    • D
    • Eb
    • E
    • F
    • F#
    • G
    • Ab
  • Adicionar à lista

    0 comentários

    Ver todos os comentários

    Conseguiu tocar?

    4 Tocaram 0 Ainda não

    Grave um vídeo tocando Hardwired e nos envie!

    00:00 / 00:00
    outros vídeos desta música
    repetir qualidade Automático
    Outros vídeos desta música
    00:00 / 00:00
    Automático

    Cifra Club Pro

    Aproveite o Cifra Club com benefícios exclusivos e sem anúncios
    Cifra Club Pro
    Aproveite o Cifra Club com benefícios exclusivos e sem anúncios
    OK