Cifra Club

Aprenda

Killing Time

Metallica

Cifra: Principal (violão e guitarra)
tom: G
INTRO
   gtr.1
eb|-------------------------------------------------|
Bb|-------------------------------------------------|
Gb|-------------------------------------------------|
Db|-------------------------------------------------|
Ab|-12-12-12-12-12-12-12-12-12-12-12-12-12-12-12-12-|
Eb|-------------------------------------------------|

eb|---------------------------------------------------|
Bb|---------------------------------------------------|
Gb|---------------------------------------------------|
Db|---------------------------------------------------|
Ab|-1211-11-11-11-11-11-11-11-1110-10-10-10-10-109-|
Eb|---------------------------------------------------|

eb|---------------------------------|---------|----------------------|
Bb|---------------------------------|---------|----------------------|
Gb|---------------------------------|---------|----------------------|
Db|---------------------------------|---------|-------------------5--|
Ab|-9-98-8-87-7-76-6-65-5-54-4-|-43-3-3-|-------------------3--|
Eb|---------------------------------|---------|-5-5-5-5-5-5-5-5-5----|

eb|----------|----------------------|---------|----------------------|
Bb|----------|----------------------|---------|----------------------|
Gb|----------|----------------------|---------|----------------------|
Db|----------|-------------------7--|---------|-------------------5--|
Ab|----------|-------------------5--|---------|-------------------3--|
Eb|----------|-5-5-5-5-5-5-5-5-5----|---------|-5-5-5-5-5-5-5-5-5----|

eb|----------|----------------------|---------|------------------------|
Bb|----------|----------------------|---------|------------------------|
Gb|----------|----------------------|---------|------------------------|
Db|----------|-------------------7--|---------|---12-10--------12--14--|
Ab|----------|-------------------5--|---------|----------12-10-10--12--|
Eb|----------|-5-5-5-5-5-5-5-5-5----|---------|------------------------|

eb|------------------------|------------------------|--------------------|
Bb|------------------------|------------------------|--------------------|
Gb|------------------------|------------------------|--------------------|
Db|---12-10--------12--14--|---12-10--------12--14--|---12-10--14-14-14--|
Ab|----------12-10-10--12--|----------12-10-10--12--|----------12-12-12--|
Eb|------------------------|------------------------|--------------------|

    gtr.1
    & gtr.2
eb|------------------------|-----------------------|------------------------|
Bb|------------------------|-----------------------|------------------------|
Gb|------------------------|-----------------------|------------------------|
Db|--12-10---------12--14--|--12-10----------------|--12-10---------12--14--|
Ab|--12-10--12-10--10--12--|--12-10--12-10--10-----|--12-10--12-10--10--12--|
Eb|------------------------|-----------------8-----|------------------------|

eb|-----------------------|------------------------------------------|
Bb|-----------------------|------------------------------------------|
Gb|-----------------------|------------------------------------------|
Db|--12-10----------------|-10------12-12-12-------------------------|
Ab|--12-10--12-10---10----|--8------10-10-10-------------------------|
Eb|------------------8----|------------------------------------------|

   1 VERSE
eb|-------------------------|-----------------------|------------------------|
Bb|-------------------------|-----------------------|------------------------|
Gb|-------------------------|-----------------------|------------------------|
Db|---12-10---------12--14--|--12-10----------------|--12-10---------12--14--|
Ab|---12-10--12-10--10--12--|--12-10--12-10--10-----|--12-10--12-10--10--12--|
Eb|-------------------------|-----------------8-----|------------------------|

eb|-----------------------|----------------|--------------------------|
Bb|-----------------------|----------------|--------------------------|
Gb|-----------------------|----------------|--------------------------|
Db|--12-10----------------|----------------|--------------------------|
Ab|--12-10--12-10--109---|--8-----10------|--XX12--XX12--XX12--XX12--|
Eb|-----------------87---|--6------8------|--XX10--XX10--XX10--XX10--|

eb|-----------------|
Bb|-----------------|
Gb|-----------------|
Db|-----------------|
Ab|--8----10-10-10--|
Eb|--6-----8--8--8--|

   2 VERSE
eb|-------------------------|-----------------------|------------------------|
Bb|-------------------------|-----------------------|------------------------|
Gb|-------------------------|-----------------------|------------------------|
Db|---12-10---------12--14--|--12-10----------------|--12-10---------12--14--|
Ab|---12-10--12-10--10--12--|--12-10--12-10--10-----|--12-10--12-10--10--12--|
Eb|-------------------------|-----------------8-----|------------------------|

eb|-----------------------|----------------|----------------------|
Bb|-----------------------|----------------|----------------------|
Gb|-----------------------|----------------|----------------------|
Db|--12-10----------------|----------------|---------------10-----|
Ab|--12-10--12-10--109---|--8-----10------|--12--12-----8--8-10--|
Eb|-----------------87---|--6------8------|--10--10-----6-----8--|

eb|----------------------|----------------------|-------------------|
Bb|----------------------|----------------------|-------------------|
Gb|----------------------|----------------------|-------------------|
Db|---------------10-12--|---------------10-----|-------------------|
Ab|--12--12-----8--8-10--|--12--12-----8--8-10--|--12--12-----8--5--|
Eb|--10--10-----6--------|--10--10-----6-----8--|--10--10-----6--3--|

eb|----------------|
Bb|----------------|
Gb|----------------|
Db|----------------|
Ab|----------------|
Eb|----------------|

   3 VERSE
eb|-------------------------|-----------------------|------------------------|
Bb|-------------------------|-----------------------|------------------------|
Gb|-------------------------|-----------------------|------------------------|
Db|---12-10---------12--14--|--12-10----------------|--12-10---------12--14--|
Ab|---12-10--12-10--10--12--|--12-10--12-10--10-----|--12-10--12-10--10--12--|
Eb|-------------------------|-----------------8-----|------------------------|

eb|-----------------------|----------------|--------------------------|
Bb|-----------------------|----------------|--------------------------|
Gb|-----------------------|----------------|--------------------------|
Db|--12-10----------------|----------------|--------------------------|
Ab|--12-10--12-10--109---|--8-----10------|--XX12--XX12--XX12--XX12--|
Eb|-----------------87---|--6------8------|--XX10--XX10--XX10--XX10--|

eb|-----------------|
Bb|-----------------|
Gb|-----------------|
Db|-----------------|
Ab|--8----10-10-10--|
Eb|--6-----8--8--8--|

   4 VERSE
eb|-------------------------|-----------------------|------------------------|
Bb|-------------------------|-----------------------|------------------------|
Gb|-------------------------|-----------------------|------------------------|
Db|---12-10---------12--14--|--12-10----------------|--12-10---------12--14--|
Ab|---12-10--12-10--10--12--|--12-10--12-10--10-----|--12-10--12-10--10--12--|
Eb|-------------------------|-----------------8-----|------------------------|

eb|-----------------------|----------------|----------------------|
Bb|-----------------------|----------------|----------------------|
Gb|-----------------------|----------------|----------------------|
Db|--12-10----------------|----------------|---------------10-----|
Ab|--12-10--12-10--109---|--8-----10------|--12--12-----8--8-10--|
Eb|-----------------87---|--6------8------|--10--10-----6-----8--|

eb|----------------------|----------------------|-------------------|
Bb|----------------------|----------------------|-------------------|
Gb|----------------------|----------------------|-------------------|
Db|---------------10-12--|---------------10-----|-------------------|
Ab|--12--12-----8--8-10--|--12--12-----8--8-10--|--12--12-----8--5--|
Eb|--10--10-----6--------|--10--10-----6-----8--|--10--10-----6--3--|

   SOLO/gtr.1/
  >r.2 rhytm
eb|----------------|------------------|----------------|---------------|
Bb|----------------|------------------|----------------|---------------|
Gb|----------------|------------------|----------------|---------------|
Db|----------------|------------------|----------------|---------------|
Ab|----------------|------------7-----|--7-------7-----|--7-----7-7-7--|
Eb|----------------|------------5-----|--5-------5-----|--5-----5-5-5--|

eb|---------------|---------------|---------------|---------------|
Bb|---------------|---------------|---------------|---------------|
Gb|---------------|---------------|---------------|---------------|
Db|--2-----2------|--2-----2-7-7--|--2-----2------|--2-----2------|
Ab|--2-----2-5-5--|--2-----2-5-5--|--2-----2-5-5--|--2-----2-5-5--|
Eb|--0-----0-3-3--|--0-----0------|--0-----0-3-3--|--0-----0-3-3--|

eb|---------------|-----------------|--------------|
Bb|---------------|-----------------|--------------|
Gb|---------------|-----------------|--------------|
Db|---------------|-----------------|--------------|
Ab|--3-----5------|-XX7-XX7-XX7-XX7-|--3----5-5-5--|
Eb|--1-----3------|-XX5-XX5-XX5-XX5-|--1----3-3-3--|

   5 VERSE
eb|-------------------------|-----------------------|------------------------|
Bb|-------------------------|-----------------------|------------------------|
Gb|-------------------------|-----------------------|------------------------|
Db|---12-10---------12--14--|--12-10----------------|--12-10---------12--14--|
Ab|---12-10--12-10--10--12--|--12-10--12-10--10-----|--12-10--12-10--10--12--|
Eb|-------------------------|-----------------8-----|------------------------|

eb|-----------------------|----------------|--------------------------|
Bb|-----------------------|----------------|--------------------------|
Gb|-----------------------|----------------|--------------------------|
Db|--12-10----------------|----------------|--------------------------|
Ab|--12-10--12-10--109---|--8-----10------|--XX12--XX12--XX12--XX12--|
Eb|-----------------87---|--6------8------|--XX10--XX10--XX10--XX10--|

eb|-----------------|
Bb|-----------------|
Gb|-----------------|
Db|-----------------|
Ab|--8----10-10-10--|
Eb|--6-----8--8--8--|

   6 VERSE
eb|-------------------------|-----------------------|------------------------|
Bb|-------------------------|-----------------------|------------------------|
Gb|-------------------------|-----------------------|------------------------|
Db|---12-10---------12--14--|--12-10----------------|--12-10---------12--14--|
Ab|---12-10--12-10--10--12--|--12-10--12-10--10-----|--12-10--12-10--10--12--|
Eb|-------------------------|-----------------8-----|------------------------|

eb|-----------------------|----------------|----------------------|
Bb|-----------------------|----------------|----------------------|
Gb|-----------------------|----------------|----------------------|
Db|--12-10----------------|----------------|---------------10-----|
Ab|--12-10--12-10--109---|--8-----10------|--12--12-----8--8-10--|
Eb|-----------------87---|--6------8------|--10--10-----6-----8--|

eb|----------------------|----------------------|-------------------|
Bb|----------------------|----------------------|-------------------|
Gb|----------------------|----------------------|-------------------|
Db|---------------10-12--|---------------10-----|-------------------|
Ab|--12--12-----8--8-10--|--12--12-----8--8-10--|--12--12-----8--5--|
Eb|--10--10-----6--------|--10--10-----6-----8--|--10--10-----6--3--|

eb|-------------|--------------|------------------||
Bb|-------------|--------------|------------------||
Gb|-------------|--------------|------------------||
Db|-------------|--------------|------------------||
Ab|-------------|--5-----------|--5----7--7--7----||
Eb|-------------|--3-----------|--3----5--5--5----||.
Composição de Ray Davies
Colaboração e revisão:
  • Jorge Miguel
3.919 exibições
    • ½ Tom
    • A
    • Bb
    • B
    • C
    • Db
    • D
    • Eb
    • E
    • F
    • F#
    • G
    • Ab
  • Adicionar à lista

    0 comentários

    Ver todos os comentários

    Conseguiu tocar?

    0 Tocaram 0 Ainda não

    Grave um vídeo tocando Killing Time e nos envie!

    00:00 / 00:00
    outros vídeos desta música
    repetir qualidade Automático
    Outros vídeos desta música
    00:00 / 00:00
    Automático

    Cifra Club Pro

    Aproveite o Cifra Club com benefícios exclusivos e sem anúncios
    Cifra Club Pro
    Aproveite o Cifra Club com benefícios exclusivos e sem anúncios
    OK