Cifra Club

Aprenda

King Nothing

Metallica

Cifra: Principal (violão e guitarra)
tom: B (forma dos acordes no tom de C) Afinação: Eb Ab Db Gb Bb Eb
Kirk Guitar: Solo do começo
E|------------------------------|
B|--17~----17~----17~----17~----| Isso repete até á quarta vez do riff principal (16 vezes);
G|------------------------------|

James Guitar: Riff Principal (A partir da 9ª vez o solo acima)

E|-------------------------------------|
B|-------------------------------------|
G|-------------------------------------|
D|-----------------5--------5-----8---7|  4x Durante o final do primeiro solo
A|-----5-6-7---5/7--7---5/7--7---------|
E|---0-0-0-0-0--------0---------6---5--|

James Guitar/Kirk Guitar: Riff Principal

E|-------------------------------------|
B|-------------------------------------|
G|-------------------------------------|
D|-----------------5--------5-----8---7|  4x por James e 3x por Kirk .
A|-----5-6-7---5/7--7---5/7--7---------|
E|---0-0-0-0-0--------0---------6---5--|

Na 4ª vez do riff principal de James/Kirk, Kirk sola isso:

Solo do pré-verso:
E|-------------------------------------------------------------|
B|--12-12^-----12-12^------------------------------------------|
G|--12-12^-----12-12^-----12-14p12-----12-14p12-----12-14p12---|
D|---------14---------14-----------14-----------14-----------14|
A|-------------------------------------------------------------|
E|-------------------------------------------------------------|

Então após isso, é o riff do verso da música:
(Recomendo tocar os zeros da mizona com Palm Mute)

E|----------------------|
B|----------------------|
G|----------------------|
D|--------5-----8-8-7---| Toca-se isso 8 vezes.
A|--------5-----8-8-7---|
E|--X--0--3--0--6-6-5--0|

Agora precisamos trocar o pré refrão:

E|---------------------------------------------------------|
B|---------------------------------------------------------|
G|----------5---------------------------5~--7-5-7^--5-7-7^-|
D|----5/7-7----7--5--7--------------7-7--------------------|
A|--0----------0--0--0-----6-----0-------------------------|
E|----------------------0--6-------------------------------|

Refrão:

E5                       C5
Then it all crashes down
                         B5
And you break your crown
                                                 A5
And you point your finger

But there's no one around (Durante este verso toca-se o riff a baixo)

E|-------------------|
B|-------------------|
G|--2-2-2-2-2-2-2-2-2|
D|--2-2-2-2-2-2-2-2-2|
A|-------------------|
E|-------------------|

E5                 G5
Just want one thing
                                         F#5
Just to play the king
                                             F5
But the castle's crumbled
F5 F5 F5 F5 F5 F5 F5 F5 F5 F5 F5
And you're left with just a name


Where's your crown, King Nothing?
E|------------------------------|
B|--17~----17~----17~----17~----|
G|------------------------------|

Riff Principal denovo: (James e Kirk)

E|-------------------------------------|
B|-------------------------------------|
G|-------------------------------------|
D|-----------------5--------5-----8---7|  4x por James e 2x por Kirk.
A|-----5-6-7---5/7--7---5/7--7---------|
E|---0-0-0-0-0--------0---------6---5--|

Na 3ª vez do riff acima, kirk toca isso:

E|-------------------------------------------------------------|
B|--12-12^-----12-12^------------------------------------------|
G|--12-12^-----12-12^-----12-14p12-----12-14p12-----12-14p12---|
D|---------14---------14-----------14-----------14-----------14|
A|-------------------------------------------------------------|
E|-------------------------------------------------------------|

E logo depois na quarta ele toca isso:

E|--------------------------------------------|
B|--12-12-----12-12-----12---14^-14^--14^-14^-|
G|--12-12-----12-12-----12---14^-14^--14^-14^-|
D|---------14---------14----------------------|
A|--------------------------------------------|
E|--------------------------------------------|

E agora volta pro riff do verso

E|----------------------|
B|----------------------|
G|----------------------|
D|--------5-----8-8-7---| Toca-se isso 8 vezes.
A|--------5-----8-8-7---|
E|--X--0--3--0--6-6-5--0|

Agora precisamos trocar o pré refrão novamente:

E|---------------------------------------------------------|
B|---------------------------------------------------------|
G|----------5---------------------------5~--7-5-7^--5-7-7^-|
D|----5/7-7----7--5--7--------------7-7--------------------|
A|--0----------0--0--0-----6-----0-------------------------|
E|----------------------0--6-------------------------------|

Refrão:

E5                       C5
Then it all crashes down
                         B5
And you break your crown
                                                 A5
And you point your finger

But there's no one around (Durante este verso toca-se o riff a baixo)

E|-------------------|
B|-------------------|
G|--2-2-2-2-2-2-2-2-2|
D|--2-2-2-2-2-2-2-2-2|
A|-------------------|
E|-------------------|

E5                 G5
Just want one thing
                                         F#5
Just to play the king
                                             F5
But the castle's crumbled
F5 F5 F5 F5 F5 F5 F5 F5 F5 F5 F5
And you're left with just a name

Where's your crown, King Nothing?
E|------------------------------|
B|--17~----17~----17~----17~----|
G|------------------------------|

Sem tab do solo :/

Base do Solo:

Riff principal -> Riff do pré-refrão -> Riff do verso

Isso é tocado com o solo do começos (Aquela dos dezessetes)
I wish I may
I wish I might
Have this wish I wish tonight
I want that star
I want it now
I want it all and I don't care how

Riff "Maléfico" Durante a próxima estrofe

E|----0---0----0-----------0----------0---------------3-----3----------0--3---0|
B|------5---3-----3/5----2-----2^\-1---------------5-----5------3--------------|
G|------------------------------------------------------------------0----------|
D|-----------------------------------------------------------------------------|
A|-----------------------------------------------------------------------------|
E|-0--------------------------------------3--1--0------------------------------|

E|-----0--------0------0--0-|
B|--------2^-2---------1--1-|
G|--------------------------|
D|--------------------------|
A|--------------------------|
E|-2-----------------2------|

Careful what you wish
Careful what you say
Careful what you wish
You may regret it
Careful what you wish
You just might get it

Refrão:

E5                       C5
Then it all crashes down
                         B5
And you break your crown
                                                 A5
And you point your finger

But there's no one around (Durante este verso toca-se o riff a baixo)

E|-------------------|
B|-------------------|
G|--2-2-2-2-2-2-2-2-2|
D|--2-2-2-2-2-2-2-2-2|
A|-------------------|
E|-------------------|

E5                 G5
Just want one thing
                                         F#5
Just to play the king
                                             F5
But the castle's crumbled
F5 F5 F5 F5 F5 F5 F5 F5 F5 F5 F5
And you're left with just a name


Where's your crown, King Nothing?
E|------------------------------|
B|--17~----17~----17~----17~----|
G|------------------------------|

Riff Principal

E|-------------------------------------|
B|-------------------------------------|
G|-------------------------------------|
D|-----------------5--------5-----8---7|  Até o final da música
A|-----5-6-7---5/7--7---5/7--7---------|
E|---0-0-0-0-0--------0---------6---5--|

Finalizar com E5 XD
Composição de James Hetfield / Kirk Hammett / Lars Ulrich
Colaboração e revisão:
  • Yan Santos
  • Rafael Pires
38.967 exibições
    • ½ Tom
    • A
    • Bb
    • B
    • C
    • Db
    • D
    • Eb
    • E
    • F
    • F#
    • G
    • Ab
  • Adicionar à lista

    0 comentários

    Ver todos os comentários

    Conseguiu tocar?

    4 Tocaram 0 Ainda não

    Grave um vídeo tocando King Nothing e nos envie!

    00:00 / 00:00
    outros vídeos desta música
    repetir qualidade Automático
    Outros vídeos desta música
    00:00 / 00:00
    Automático

    Cifra Club Pro

    Aproveite o Cifra Club com benefícios exclusivos e sem anúncios
    Cifra Club Pro
    Aproveite o Cifra Club com benefícios exclusivos e sem anúncios
    OK