Cifra Club

One

Metallica

Cifra: Solo (violão e guitarra)
tom: C
Solo - Parte 1 de 6

   T        T        T        T
E|-19p15p12-19p15p12-19p15p12-19p15p12---------------
B|---------------------------------------------------
G|---------------------------------------------------
D|---------------------------------------------------
A|---------------------------------------------------
E|---------------------------------------------------
   T        T        T        T
E|-19p15p12-19p15p12-19p15p12-19p15p12---------------
B|---------------------------------------------------
G|---------------------------------------------------
D|---------------------------------------------------
A|---------------------------------------------------
E|---------------------------------------------------
   T        T        T        T
E|-20p15p12-20p15p12-20p15p12-20p15p12---------------
B|---------------------------------------------------
G|---------------------------------------------------
D|---------------------------------------------------
A|---------------------------------------------------
E|---------------------------------------------------
   T        T        T        T
E|-20p15p12-20p15p12-20p15p12-20p15p12---------------
B|---------------------------------------------------
G|---------------------------------------------------
D|---------------------------------------------------
A|---------------------------------------------------
E|---------------------------------------------------
   T        T        T        T
E|---------------------------------------------------
B|-19p15p12-19p15p12-19p15p12-19p15p12---------------
G|---------------------------------------------------
D|---------------------------------------------------
A|---------------------------------------------------
E|---------------------------------------------------
   T        T        T        T
E|---------------------------------------------------
B|-19p15p12-19p15p12-19p15p12-19p15p12---------------
G|---------------------------------------------------
D|---------------------------------------------------
A|---------------------------------------------------
E|---------------------------------------------------
   T        T        T        T
E|---------------------------------------------------
B|-20p15p12-20p15p12-20p15p12-20p15p12---------------
G|---------------------------------------------------
D|---------------------------------------------------
A|---------------------------------------------------
E|---------------------------------------------------
   T        T        T        T
E|---------------------------------------------------
B|-20p15p12-20p15p12-20p15p12-20p15p12---------------
G|---------------------------------------------------
D|---------------------------------------------------
A|---------------------------------------------------
E|---------------------------------------------------

Solo - Parte 2 de 6

   T        T        T        T
E|---------------------------------------------------
B|-17p13p10-17p13p10-17p13p10-17p13p10---------------
G|---------------------------------------------------
D|---------------------------------------------------
A|---------------------------------------------------
E|---------------------------------------------------
   T        T        T        T
E|---------------------------------------------------
B|-17p13p10-17p13p10-17p13p10-17p13p10---------------
G|---------------------------------------------------
D|---------------------------------------------------
A|---------------------------------------------------
E|---------------------------------------------------
   T        T        T        T
E|---------------------------------------------------
B|-18p13p10-18p13p10-18p13p10-18p13p10---------------
G|---------------------------------------------------
D|---------------------------------------------------
A|---------------------------------------------------
E|---------------------------------------------------
   T        T        T        T
E|---------------------------------------------------
B|-18p13p10-18p13p10-18p13p10-18p13p10---------------
G|---------------------------------------------------
D|---------------------------------------------------
A|---------------------------------------------------
E|---------------------------------------------------
   T        T     T     T     T     T    T     T
E|---------------------------------------------------
B|-17p12h14-17p12-17p10-17p12-17p10-17p8-17p10-17p8--
G|---------------------------------------------------
D|---------------------------------------------------
A|---------------------------------------------------
E|---------------------------------------------------
   T    T    T    T
E|---------------------------------------------------
B|-17p7-17p8-17p7-17p5~~-----------------------------
G|---------------------------------------------------
D|---------------------------------------------------
A|---------------------------------------------------
E|---------------------------------------------------

Solo - Parte 3 de 6

E|------------------------14-14-14-15-15-15-17-17-17-
B|-/12-12-12-12-12-12-12-----------------------------
G|---------------------------------------------------
D|---------------------------------------------------
A|---------------------------------------------------
E|---------------------------------------------------

E|----------17-17-17-22b24---22b24---22b24~~---------
B|-15-15-15------------------------------------------
G|---------------------------------------------------
D|---------------------------------------------------
A|---------------------------------------------------
E|---------------------------------------------------

Solo - Parte 4 de 6

E|------15-17p15-------------15h17p15----------------
B|-/17-----------19-15h17h19----------19-15h17h19----
G|---------------------------------------------------
D|---------------------------------------------------
A|---------------------------------------------------
E|---------------------------------------------------

E|-15h17p15-------------15h17p15---------------------
B|----------19-15h17h19----------19-15h17h19---------
G|---------------------------------------------------
D|---------------------------------------------------
A|---------------------------------------------------
E|---------------------------------------------------

E|-15h17p15-------------15h17p15---------------------
B|----------19-15h17h19----------19-15h17h19---------
G|---------------------------------------------------
D|---------------------------------------------------
A|---------------------------------------------------
E|---------------------------------------------------

E|-19p15----19p15----19p15----19p15------------------
B|-------15-------15-------15-------15---------------
G|---------------------------------------------------
D|---------------------------------------------------
A|---------------------------------------------------
E|---------------------------------------------------

E|-19p15----19p15----19p15----19p15------------------
B|-------15-------15-------15-------15---------------
G|---------------------------------------------------
D|---------------------------------------------------
A|---------------------------------------------------
E|---------------------------------------------------

Solo - Parte 5 de 6

E|-------15-------15-------15-------15-18b20-15------
B|-18b20----18b20----18b20----18b20------------------
G|---------------------------------------------------
D|---------------------------------------------------
A|---------------------------------------------------
E|---------------------------------------------------

E|-------15-18b20-15-------15--19p17p15--17----------
B|-18b20-------------18b20---------------------------
G|---------------------------------------------------
D|---------------------------------------------------
A|---------------------------------------------------
E|---------------------------------------------------

E|-17p15p14-15---------------------------------------
B|-------------19p17p15-17--15h17p15p13-15-----------
G|---------------------------------------------------
D|---------------------------------------------------
A|---------------------------------------------------
E|---------------------------------------------------

E|---------------------------------------------------
B|-13h15p13p12-13--12h13p12----12--------------------
G|--------------------------14----14-12-14p12----12--
D|--------------------------------------------14-----
A|---------------------------------------------------
E|---------------------------------------------------

E|---------------------------------------------------
B|---------------------------------------------------
G|----12-14b16--14b16--14b16--14b16--14b16~~~--------
D|-14------------------------------------------------
A|---------------------------------------------------
E|---------------------------------------------------

E|---------------------------------------------------
B|---------------------------------------------------
G|-b16r14p12----12----12-----------------------------
D|-----------14----14----14-13-12--------------------
A|--------------------------------14-13-12-10~~------
E|---------------------------------------------------

Solo - Parte 6 de 6

   P.M.        .  .        .  .        .  .
E|---------------------------------------------------
B|-------15b16-------15b16-------15b16-------15b16---
G|-------15b16-------15b16-------15b16-------15b16---
D|-17-17-------17-17-------17-17-------17-17---------
A|---------------------------------------------------
E|---------------------------------------------------

E|---------------------------------------------------
B|-17~~--17~~--15h17b15----15b16---------------------
G|-17~~--17~~--15h17b15----15b16---------------------
D|----------------------17---------------------------
A|---------------------------------------------------
E|---------------------------------------------------
   P.M.        .  .        .  .
E|---------------------------------------------------
B|-------15b16-------15b16-------17-15b16------------
G|-------15b16-------15b16-------17-15b16------------
D|-17-17-------17-17-------17-17---------------------
A|---------------------------------------------------
E|---------------------------------------------------

E|-------15-------15-------15-------15-------15------
B|-18b20----18b20----18b20----18b20----18b20---------
G|---------------------------------------------------
D|---------------------------------------------------
A|---------------------------------------------------
E|---------------------------------------------------

E|-------15------------------------------------------
B|-18b20----18b20~~~---------------------------------
G|---------------------------------------------------
D|---------------------------------------------------
A|---------------------------------------------------
E|---------------------------------------------------
Composição de James Hetfield / Lars Ulrich
Colaboração e revisão:
  • Vinícius Dias
35.203 exibições
    • ½ Tom
    • A
    • Bb
    • B
    • C
    • Db
    • D
    • Eb
    • E
    • F
    • F#
    • G
    • Ab
  • Adicionar à lista

    0 comentários

    Ver todos os comentários

    Conseguiu tocar?

    7 Tocaram 0 Ainda não

    Grave um vídeo tocando One e nos envie!

    00:00 / 00:00
    Outros vídeos desta música
    Repetir Qualidade Automático
    Outros vídeos desta música
    00:00 / 00:00
    Automático
    Capítulos
    • Tocando Solo
    • Dicas iniciais/Equipamentos
    • Configuração do Efeito
    • Solo (120 bpm)
    • Solo (155 bpm)
    • Solo (190 bpm)
    • Encerramento
    • Ficha técnica

    Cifra Club Pro

    Aproveite o Cifra Club com benefícios exclusivos e sem anúncios
    Cifra Club Pro
    Aproveite o Cifra Club com benefícios exclusivos e sem anúncios
    OK