Cifra Club

Aprenda

Slither

Metallica

Cifra: Principal (violão e guitarra)
tom: A
Intro:
      
eb|-----------|---------|
Bb|-----------|---------|
Gb|-----0-----|---------|
Db|---2-----4x|-8-7-5-2-|
Ab|-2-----1---|-8-7-5-2-|
Eb|-0---------|-6-5-3-0-|

Verso:

eb|---------------|-------------------|
Bb|---------------|-------------------|
Gb|---------------|-------------------|
Db|-22-5-2-7878---|-22-5-2-87-7-------|
Ab|-22-5-2-7878-2x|-22-5-2-87-7-------|
Eb|-00-3-0-5656---|-00-3-0-65-5-------|

Pré-Refrão:

e|-----------------|
B|-----------------|
G|-----------------|
D|-2/3xxx2/3xxx----|
A|-2/3xxx2/3xxx----|
E|-0/1xxx0/1xxx----|


Refrão:
#12x
eb|-------------------------------------------|
Bb|-------------------------------------------|
Gb|---------------776-555555------------------|
Db|-998-7#-776-5#-776-555555-777777xx7xx7xx---|
Ab|-998-7#-776-5#-554-333333-777777xx7xx7xx---|
Eb|-776-5#-554-3#------------555555xx5xx5xx---|

outro:

eb|-------------------|
Bb|-------------------|
Gb|-----0-2/3/2/0-----|
Db|---2-----------2---|
Ab|-2-----------------|
Eb|-0-----------------|
Composição de James Hetfield / Kirk Hammett / Lars Ulrich
Colaboração e revisão:
  • Douglas Machado
8.126 exibições
    • ½ Tom
    • A
    • Bb
    • B
    • C
    • Db
    • D
    • Eb
    • E
    • F
    • F#
    • G
    • Ab
  • Adicionar à lista

    0 comentários

    Ver todos os comentários

    Conseguiu tocar?

    1 Tocaram 0 Ainda não

    Grave um vídeo tocando Slither e nos envie!

    00:00 / 00:00
    outros vídeos desta música
    repetir qualidade Automático
    Outros vídeos desta música
    00:00 / 00:00
    Automático

    Cifra Club Pro

    Aproveite o Cifra Club com benefícios exclusivos e sem anúncios
    Cifra Club Pro
    Aproveite o Cifra Club com benefícios exclusivos e sem anúncios
    OK