Cifra Club

Aprenda

Spit Out The Bone

Metallica

Cifra: Principal (violão e guitarra)
tom: A
[Intro]

E|------------------------------|------------------------------|| 
B|------------------------------|------------------------------||
G|------------------------------|------------------------------||
D|------------------------------|------------------------------||
A|-------------------------4--5-|-------------------------5--7-||
E|-0-0-0-0-0-0-0-0-0-0-0-0-2--3-|-0-0-0-0-0-0-0-0-0-0-0-0-3--5-||
                                                                    x4
e|||------------------------------|------------------------------||
B|||------------------------------|------------------------------||
G|||------------------------------|------------------------------||
D|||------------------------------|------------------------------||
A|||-------------------------4--5-|--------4--5--4--5--7---------||
E|||-0-0-0-0-0-0-0-0-0-0-0-0-2--3-|-0-0-0--2--3--2--3--5~~-------||





E|---------------------------------|-------------------------------|| 
B|---------------------------------|-------------------------------||
G|---------------------------------|-------------------------------||
D|---------------------------------|-------------------------------||
A|---------------------------------|-------------------------------||
E|-0-0-0-0-0-0-0-0---------0-0-0-0-|-0-0-0-0----------0-0-0-0------||
                                                                        x2       
E|---------------------------------|-------------------------------||
B|---------------------------------|-------------------------------||
G|---------------------------------|-------------------------------||
D|---------------------------------|-------------------------------||
A|---------------------------------|-------------------------------||
E|-0-0-0-0-0-0-0-0---------0-0-0-0-|-0-0-0-0-----------------------||

E|---------------------------------|-------------------------------||
B|---------------------------------|-------------------------------||
G|---------------------------------|-------------------------------||
D|---------------------------------|-------------------------------||
A|------------------10--7----------|----------9--5-----------9--10-||
E|-0-0-0-0-0-0-0-0---------0-0-0-0-|-0-0-0-0--------0-0-0-0--------||
                                                                        
E|---------------------------------|-------------------------------||
B|---------------------------------|-------------------------------||
G|---------------------------------|-------------------------------||
D|---------------------------------|-------------------------------||
A|------------------10--7----------|----------9--5--9--10--12~~~---||
E|-0-0-0-0-0-0-0-0---------0-0-0-0-|-0-0-0-0-----------------------||

E|---------------------------------|-------------------------------||
B|---------------------------------|-------------------------------||
G|---------------------------------|-------------------------------||
D|---------------------------------|-------------------------------||
A|------------------10--7----------|----------9--5-----------9--10-||
E|-0-0-0-0-0-0-0-0---------0-0-0-0-|-0-0-0-0--------0-0-0-0--------||

E|---------------------------------|-------------------------------||
B|---------------------------------|-------------------------------||
G|---------------------------------|-------------------------------||
D|---------------------------------|-------------------------------||
A|------------------10--7----------|----------9--5--4--5--7--------||
E|-0-0-0-0-0-0-0-0---------0-0-0-0-|-0-0-0-0--------2--3--5--------||

E|--------------------------|--------------------------||
B|--------------------------|--------------------------||
G|--------------------------|--------------------------||
D|--------------------------|--------------------------||
A|-4--5--7---8--7---5--7--3-|-2------------------------||
E|-2--3--5---6--5---3--5--1-|-0------------------------||




[Verse]

First Part:

E|---------------------------------|-------------------------------||
B|---------------------------------|-------------------------------||
G|---------------------------------|-------------------------------||
D|---------------------------------|-------------------------------||
A|------------------10--7----------|----------9--5-----------9--10-||
E|-0-0-0-0-0-0-0-0---------0-0-0-0-|-0-0-0-0--------0-0-0-0--------||
                                                                        
E|---------------------------------|-------------------------------||
B|---------------------------------|-------------------------------||
G|---------------------------------|-------------------------------||
D|---------------------------------|-------------------------------||
A|------------------10--7----------|----------9--5--9--10--12~~~---||
E|-0-0-0-0-0-0-0-0---------0-0-0-0-|-0-0-0-0-----------------------||

E|---------------------------------|-------------------------------||
B|---------------------------------|-------------------------------||
G|---------------------------------|-------------------------------||
D|---------------------------------|-------------------------------||
A|------------------10--7----------|----------9--5-----------9--10-||
E|-0-0-0-0-0-0-0-0---------0-0-0-0-|-0-0-0-0--------0-0-0-0--------||

E|---------------------------------|-------------------------------||
B|---------------------------------|-------------------------------||
G|---------------------------------|-------------------------------||
D|---------------------------------|-------------------------------||
A|------------------10--7----------|----------9--5--4--5--7--------||
E|-0-0-0-0-0-0-0-0---------0-0-0-0-|-0-0-0-0--------2--3--5--------||

Second Part:

E|-------------------------------|---------------------------------||
B|-------------------------------|---------------------------------||
G|-------------------------------|---------------------------------||
D|-------------------------------|---------------------------------||
A|-9-----------------------------|-----------------------------12--||
E|-7-7-7-7-7-7-7-7-7-7-7-7-7-7-7-|-7-7-7-7-7-7-7-7-7-7-7-7-7-7-10--||

E|-------------------------------|---------------------------------||
B|-------------------------------|---------------------------------||
G|-------------------------------|---------------------------------||
D|-------------------------------|---------------------------------||
A|-9-----------------------------|-----------------------------12--||
E|-7-7-7-7-7-7-7-7-7-7-7-7-7-7-7-|-7-7-7-7-7-7-7-7-7-7-7-7-7-7-10--||

E|-------------------------------|---------------------------------||
B|-------------------------------|---------------------------------||
G|-------------------------------|---------------------------------||
D|-------------------------------|---------------------------------||
A|-5-----------------------------|-----------------------------7---||
E|-3-3-3-3-3-3-3-3-3-3-3-3-3-3-3-|-3-3-3-3-3-3-3-3-3-3-3-3-3-3-5---||

E|-------------------------------|---------------------------------||
B|-------------------------------|---------------------------------||
G|-------------------------------|---------------------------------||
D|-------------------------------|---------------------------------||
A|-5-----------------------------|-------------------------12--12--||
E|-3-3-3-3-3-3-3-3-3-3-3-3-3-3-3-|-3-3-3-3-3-3-3-3-3-3-3-3-10--10--||

Second time end with:

E|-------------------------------|---------------------------------||
B|-------------------------------|---------------------------------||
G|-------------------------------|---------------------------------||
D|-------------------------------|--------------------------7--7---||
A|-5-----------------------------|--------------------------5--5---||
E|-3-3-3-3-3-3-3-3-3-3-3-3-3-3-3-|-3-3-3-3-3-3-3-3-3-3-3-3--5--5---||



[Chorus]

(Touch the E string lightly and slide your finger across to create harmonics during the F# palm mutes)

E|-------------------------------|---------------------------------|-------------------------||
B|-------------------------------|---------------------------------|-------------------------||
G|-------------------------------|---------------------------------|-------------------------||
D|-------------------------------|---------------------------------|-------------------------||
A|-4-----------------------------|---------------------------------|-4--3--2--3--4--3--2--3--||
E|-2-2-2-2-2-2-2-2-2-2-2-2-2-2-2-|-2-2-2-2-2-2-2-2-2-2-2-2-2-2-2-2-|-2--1--0--1--2--1--0--1--||

E|---------------------------------|-------------------------||
B|---------------------------------|-------------------------|| x3
G|---------------------------------|-------------------------||
D|---------------------------------|-------------------------||
A|---------------------------------|-4--3--2--3--4--3--2--3--||
E|-0-0-0-0-0-0-0-0-0-0-0-0-0-0-0-0-|-2--1--0--1--2--1--0--1--||




[Verse 2]

Octaves below Main Riff.

E|----------------------------------------------||
B|----------------------------------------------||
G|---------11----------------12-----14--14--11--||
D|-9-------x---------5-------x------x---x---x---||
A|-x-------9---------x-------10-----12--12--9---||
E|-7-----------------3--------------------------||





[Bridge]

                                      (Gojira Slide)
E|-----------------|----------------|----------------|x--------------||x3
B|-----------------|----------------|----------------|-x-------------||
G|-----------------|----------------|----------------|--x6----6---6--||
D|-----------2-----|----------2-----|----------2-----|---6----6---6--||
A|-----------2-----|----------2-----|----------2-----|---4----4---4--||
E|-0--0-0-0--------|-0--0-0-0-------|-0--0-0-0-------|---4----4---4--||

E|-----------------|----------------|----------------|x--------------||x3
B|-----------------|----------------|----------------|-x-------------||
G|-----------------|----------------|----------------|--x6----6---6--||
D|-----------------|----------------|----------------|---6----6---6--||
A|-----------------|----------------|----------------|---4----4---4--||
E|-----------------|----------------|----------------|---4----4---4--||

E|----------------------|--------------------------|----------------------|---------------|| x2
B|----------------------|--------------------------|----------------------|---------------||
G|----------------------|--------------------------|----------------------|--6----6---6---||
D|-----------5-----5--7-|-7b8r7--5--7b8r7--5--7--5-|-----------5----------|--6----6---6---||
A|-7--7-7-7-----7-------|--------------------------|-7--7-7-7-----7--5--7-|--4----4---4---||
E|----------------------|--------------------------|----------------------|--4----4---4---||

E|-----------------|--------------|| x2
B|-----------------|--------------||
G|--9----9---------|--6----6---6--||
D|--9----9---------|--6----6---6--||
A|--7----7----5--7-|--4----4---4--||
E|--7----7---------|--4----4---4--||

E|----------------------|--------------------------|----------------------|---------------|| x2
B|----------------------|--------------------------|----------------------|---------------||
G|----------------------|--------------------------|----------------------|--6----6---6---||
D|-----------5-----5--7-|-7b8r7--5--7b8r7--5--7--5-|-----------5----------|--6----6---6---||
A|-7--7-7-7-----7-------|--------------------------|-7--7-7-7-----7--5--7-|--4----4---4---||
E|----------------------|--------------------------|----------------------|--4----4---4---||

E|------------------|------------------|------------------|-----------------|| x2
B|------------------|------------------|------------------|-----------------||
G|------------------|------------------|------------------|-----------------||
D|------------------|------------------|------------------|-----------------||
A|-5h7-7-7-7--5--2--|------------------|-5h7-7-7-7--5--4--|-----------------||
E|------------3--0--|------------------|------------3--2--|-----------------||


[SOLO]

[Rhythm Guitar]

E|-----------------------|-----------------------|-----------------------|-----------------------|| 
B|-----------------------|-----------------------|-----------------------|-----------------------||
G|-----------------------|-----------------------|-----------------------|-----------------------||
D|-----------------------|-----------------------|-----------------------|-----------------------||
A|-5h7-7-7-7--5--2-------|-5h7-7-7-7--5--2-------|-5h7-7-7-7--5--2-------|-5h7-7-7-7--5--4-------||
E|------------3--0--0--0-|------------3--0--0--0-|------------3--0--0--0-|------------3--2--0--0-||

E|-----------------------|-----------------------|-----------------------|-----------------------|| 
B|-----------------------|-----------------------|-----------------------|-----------------------||
G|-----------------------|-----------------------|-----------------------|-----------------------||
D|-----------------------|-----------------------|-----------------------|-------------5---------||
A|------------8--6-------|------------8--5-------|-5-----------7---------|-8-----------3--3--3--3||
E|-1h3-3-3-3--6--3--3--3-|-1h3-3-3-3--6--3--3--3-|-3--3--3--3--5--5--5--5|-6--6--6--6------------||

E|-----------------------||
B|-----------------------||
G|-----------------------||
D|-7~~-------------------||
A|-5~~-------------------||
E|-5~~-------------------||

[LEAD GUITAR]

Heavy Wah

E|---------------------------------------------------------------------------------||
B|---------------------------------------------------------------------------------||
G|------------------------------------------------12-----12-14-14b16r14----12------||
D|-----------5--------------5------12h14-14-14-14----14-----------------14----14---||
A|-5h7-7-7-7---7--5h7-7-7-7---7----------------------------------------------------||
E|---------------------------------------------------------------------------------||

                         (or you can just bend and release G5 many times, but this is more fancy)
E|---------------------------------------------------------------------------------|| 
B|---------------------------------------------------------------------------------||
G|--5Nb7--------------5p3p0-5p3p0-5p3p0-5p3p0-5p3p0-5p3p0-5p3p0-5p3p0-5p3p0-5p3p0--||
D|---------------------------------------------------------------------------------||
A|---------------------------------------------------------------------------------||
E|---------------------------------------------------------------------------------||

E|---------------------------------------------------------------------------------||
B|---------------------------------------------------------------------------------||
G|-5p3p0-5p3p0-5b--3h5--2~~~~~~------------------------ ---------------------------||
D|---------------------------------------------------------------------------------||
A|---------------------------------------------------------------------------------||
E|---------------------------------------------------------------------------------||



[POST SOLO]

1st Guitar

E|---------------|------------------|-----------------------|------------------------||
B|---------------|------------------|-----------------------|------------------------||
G|---------------|------------------|-----------------------|------------------------||
D|------9--9-----|------------------|-----------------------|------------------------||
A|-----------10--|-10--9--9-7h9p7p5-|-7--10--9--7--9--7---5-|-/5---------------------||
E|-0-------------|------------------|-----------------------|------------------------||

2nd Guitar

(Palm mute after hitting once)
E|---------------|------------------|-----------------------|------------------------||
B|---------------|------------------|-----------------------|------------------------||
G|---------------|------------------|-----------------------|------------------------||
D|---------------|------------------|-----------------------|-7----------------------||
A|-2-------------|------------------|-5---------------------|-5----------------------||
E|-0-------------|------------------|-3---------------------|------------------------||

3rd Guitar 


E|---------------|-----------------------|---------------------------|---------------||
B|---------------|-----------------------|---------------------------|---------------||
G|---------------|-----------------------|---------------------------|---------------||
D|-----12--12----|-----------------------|---------------------------|---------------||
A|------------14-|-14--12--12-10h12p10p9-|-9--14--12--10--12--10---9-|-/9------------||
E|-0-------------|-----------------------|---------------------------|---------------||

4th Guitar plays arpeggios on Em, G and D open chords.




[2nd BRIDGE]

E|-------------------|--------------------||
B|-------------------|--------------------||
G|-------------------|--------------------||
D|-------------------|--------------------||
A|-4--5--7---4--5--7-|--8--7---5--7--3----||
E|-2--3--5---2--3--5-|--6--5---3--5--1----||

E|-------------------------|-------------------------|| x4
B|-------------------------|-------------------------||
G|-----------------14--12--|-----------------12--10--||
D|-----------------14--12--|-----------------12--10--||
A|-------------------------|-------------------------||
E|-0-0-0-0-0-0-0-0---------|-0-0-0-0-0-0-0-0---------||

E|-------------------------|-------------------------|-----------------||
B|-------------------------|-------------------------|-----------------||
G|-------------------------|-------------------------|-----------------||
D|-----------------14--12--|-------------------------|-----------------||
A|-2--2----2--2--2-14--12--|-------------------------|-2---2---2---2---||
E|-0--0--1-0--0--0-12--10--|-0--0--1-0--0--0-12--10--|-0---0---0---0---||

E|------------------------|-----------------------------||
B|------------------------|-----------------------------||
G|------------------------|-------9-------------9-------||
D|------------------------|-------9-------------9-------||
A|-4--3--2--3--4--3--2--3-|-------7-------------7-------||
E|-2--1--0--1--2--1--0--1-|-0--0----------0--0----------||

E|------------------------|-----------------------------||
B|------------------------|-----------------------------||
G|------------------------|-------9-------------14--12--||
D|------------------------|-------9-------------14--12--||
A|-4--3--2--3--4--3--2--3-|-------7---------------------||
E|-2--1--0--1--2--1--0--1-|-0--0----------0--0----------||

E|------------------------|-----------------------------||
B|------------------------|-----------------------------||
G|------------------------|-------9-------------14--12--||
D|------------------------|-------9-------------14--12--||
A|-4--3--2--3--4--3--2--3-|-------7---------------------||
E|-2--1--0--1--2--1--0--1-|-0--0----------0--0----------||

E|------------------------|-----------------------------|---------------||
B|------------------------|-----------------------------|---------------||
G|------------------------|-------14--12--------14--12--|-------14--12--||
D|------------------------|-------14--12--------14--12--|-------14--12--||
A|-4--3--2--3--4--3--2--3-|-----------------------------|---------------||
E|-2--1--0--1--2--1--0--1-|-0--0----------0--0----------|-0--0----------||

Heavy Riff (first Slide is very fast, second very slow)

E|-------------------------|| x4
B|-------------------------||
G|-------------------------||
D|-------------------------||
A|-3/4---------3/4------2--||
E|-1/2-1--0--0-1/2---1--0--||

E|------------------------|-----------------------------||
B|------------------------|-----------------------------||
G|------------------------|-------9-------------9-------||
D|------------------------|-------9-------------9-------||
A|-4--3--2--3--4--3--2--3-|-------7-------------7-------||
E|-2--1--0--1--2--1--0--1-|-0--0----------0--0----------||

E|------------------------|-----------------------------|---------------||
B|------------------------|-----------------------------|---------------||
G|------------------------|-------14--12--------14--12--|-------14--12--||
D|------------------------|-------14--12--------14--12--|-------14--12--||
A|-4--3--2--3--4--3--2--3-|-----------------------------|---------------||
E|-2--1--0--1--2--1--0--1-|-0--0----------0--0----------|-0--0----------||

Then back to intro riff:


E|------------------------------|------------------------------|| 
B|------------------------------|------------------------------||
G|------------------------------|------------------------------||
D|------------------------------|------------------------------||
A|-------------------------4--5-|-------------------------5--7-||
E|-0-0-0-0-0-0-0-0-0-0-0-0-2--3-|-0-0-0-0-0-0-0-0-0-0-0-0-3--5-||
                                                                    
E|------------------------------|------------------------------||
B|------------------------------|------------------------------||
G|------------------------------|------------------------------||
D|------------------------------|------------------------------||
A|-------------------------4--5-|--------4--5--4--5--7---------||
E|-0-0-0-0-0-0-0-0-0-0-0-0-2--3-|-0-0-0--2--3--2--3--5~~-------||


[2nd Solo]

Rhythm Guitar:


E|------------------------------|------------------------------|| 
B|------------------------------|------------------------------||
G|------------------------------|------------------------------||
D|------------------------------|------------------------------||
A|-------------------------4--5-|-------------------------5--7-||
E|-0-0-0-0-0-0-0-0-0-0-0-0-2--3-|-0-0-0-0-0-0-0-0-0-0-0-0-3--5-||
                                                                    x2
E|------------------------------|------------------------------||
B|------------------------------|------------------------------||
G|------------------------------|------------------------------||
D|------------------------------|------------------------------||
A|-------------------------4--5-|--------4--5--4--5--7---------||
E|-0-0-0-0-0-0-0-0-0-0-0-0-2--3-|-0-0-0--2--3--2--3--5~~-------||

E|-----------------|-----------------||
B|-----------------|-----------------||
G|-----------------|-----------------||
D|-2-------5----4--|--2------5----7--||
A|-0-------3----2--|--0------3----5--||
E|-----------------|-----------------||

E|------------------------------|------------------------------|| 
B|------------------------------|------------------------------||
G|------------------------------|------------------------------||
D|------------------------------|------------------------------||
A|-------------------------4--5-|-------------------------5--7-||
E|-0-0-0-0-0-0-0-0-0-0-0-0-2--3-|-0-0-0-0-0-0-0-0-0-0-0-0-3--5-||
                                                                    x4
E|------------------------------|------------------------------||
B|------------------------------|------------------------------||
G|------------------------------|------------------------------||
D|------------------------------|------------------------------||
A|-------------------------4--5-|--------4--5--4--5--7---------||
E|-0-0-0-0-0-0-0-0-0-0-0-0-2--3-|-0-0-0--2--3--2--3--5~~-------||

E|---------------------------|--------------------------|| x2
B|---------------------------|--------------------------||
G|---------------------------|--------------------------||
D|---------------------------|--------------------------||
A|--------10--7---------9--5-|--------7--4---------5--2-||
E|-0-0-0---------0-0-0-------|-0-0-0--------0-0-0-------||



[LEAD]

E|--------12--------------12--------------12--------------12-----------------||
B|-----12----15p12-----12----15p12-----12----15p12-----12----15p12-----------||
G|-14b-------------14b-------------14b-------------14b-------------14b-------||
D|---------------------------------------------------------------------------||
A|---------------------------------------------------------------------------||
E|---------------------------------------------------------------------------||

E|--------12--------------12-----------15p14p12-15p14p12-15p14p12-15p14p12---|| 
B|-----12----15p12-----12----15p12-------------------------------------------||
G|-14b-------------14b-------------14b---------------------------------------||
D|---------------------------------------------------------------------------||
A|---------------------------------------------------------------------------||
E|---------------------------------------------------------------------------||

E|---------------------------------------------------------------------------||
B|----7--7-----7--7-----7--7-----------7--7-----7--7-----7--7----------------||
G|----7--7-----7--7-----7--7--/9-------7--7-----7--7-----7--7--9h12-9--------||
D|-/9-------/9-------/9-------------/9-------/9-------/9---------------------||
A|---------------------------------------------------------------------------||
E|---------------------------------------------------------------------------||

E|---------------------------------------------------------------------------||
B|---------------------------------------------------------------------------||
G|---------------------------------------------------------------------------||
D|------9-10-12-10-9-10-9----9-----9-10-12-10-9-10-9----9--------------------||
A|--/12-------------------12---/12-------------------12---12-10--------------||
E|---------------------------------------------------------------------------||

E|-10p8p7-10p8p7-10p8p7-10p8p7-12p10p8-12p10p8-12p10p8-12p10p8---------------||
B|---------------------------------------------------------------------------||
G|---------------------------------------------------------------------------||
D|---------------------------------------------------------------------------||
A|---------------------------------------------------------------------------||
E|---------------------------------------------------------------------------||

E|-14p12p10-14p12p10-15p14p12-15p14p12-17p15p14-17p15p14---dive-bomb---------||
B|---------------------------------------------------------------------------||
G|---------------------------------------------------------------------------||
D|---------------------------------------------------------------------------||
A|---------------------------------------------------------------------------||
E|---------------------------------------------------------------------------||

E|---------------------------------------------------------------------------||
B|-14b-------------14b-14b----------------15p12-15p12----12-15p12-15p12------||
G|-14b-12------12--14b-14b--12-----12-14b-------------14----------------14---||
D|----------14------------------14-------------------------------------------||
A|---------------------------------------------------------------------------||
E|---------------------------------------------------------------------------||

E|---------------------------------------------------------------------------|| 
B|-12-15p12-17p12-15p12-12---------------------------------------------------||
G|-------------------------14p12---------------------------------------------||
D|-------------------------------14--12--14~~--------------------------------||
A|---------------------------------------------------------------------------||
E|---------------------------------------------------------------------------||

E|-19p15----------15--17p14----------14-15p12----------12-14p10--------------|| x2
B|-------17----17-----------15----15----------13----13----------12----12-----||
G|----------16-----------------14----------------12----------------11--------||
D|---------------------------------------------------------------------------||
A|---------------------------------------------------------------------------||
E|---------------------------------------------------------------------------||

(Heavy wah pedal, not sure if it's right)

E|-12p10p0-0-14p12p0-0-12p10p0-0-14p12p0-0-15p14p0-0-14p12p0-15p14p0-0-17p15p0-0-|| 
B|-------------------------------------------------------------------------------||
G|-------------------------------------------------------------------------------||
D|-------------------------------------------------------------------------------||
A|-------------------------------------------------------------------------------||
E|-------------------------------------------------------------------------------||



[ENDING]


E|-------------------------------|---------------------------------|-------------------------||
B|-------------------------------|---------------------------------|-------------------------||
G|-------------------------------|---------------------------------|-------------------------||
D|-------------------------------|---------------------------------|-------------------------||
A|-4-----------------------------|---------------------------------|-4--3--2--3--4--3--2--3--||
E|-2-2-2-2-2-2-2-2-2-2-2-2-2-2-2-|-2-2-2-2-2-2-2-2-2-2-2-2-2-2-2-2-|-2--1--0--1--2--1--0--1--||

E|---------------------------------|-------------------------||
B|---------------------------------|-------------------------|| x3
G|---------------------------------|-------------------------||
D|---------------------------------|-------------------------||
A|---------------------------------|-4--3--2--3--4--3--2--3--||
E|-0-0-0-0-0-0-0-0-0-0-0-0-0-0-0-0-|-2--1--0--1--2--1--0--1--||

E|---------------------------------|-------------------------------||
B|---------------------------------|-------------------------------||
G|---------------------------------|-------------------------------||
D|---------------------------------|-------------------------------||
A|------------------10--7----------|----------9--5-----------9--10-||
E|-0-0-0-0-0-0-0-0---------0-0-0-0-|-0-0-0-0--------0-0-0-0--------||
                                                                        
E|---------------------------------|-------------------------------||
B|---------------------------------|-------------------------------||
G|---------------------------------|-------------------------------||
D|---------------------------------|-------------------------------||
A|------------------10--7----------|----------9--5--9--10--12~~~---||
E|-0-0-0-0-0-0-0-0---------0-0-0-0-|-0-0-0-0-----------------------||

E|---------------------------------|-------------------------------||
B|---------------------------------|-------------------------------||
G|---------------------------------|-------------------------------||
D|---------------------------------|-------------------------------||
A|------------------10--7----------|----------9--5-----------9--10-||
E|-0-0-0-0-0-0-0-0---------0-0-0-0-|-0-0-0-0--------0-0-0-0--------||

E|---------------------------------|-------------------------------||
B|---------------------------------|-------------------------------||
G|---------------------------------|-------------------------------||
D|---------------------------------|-------------------------------||
A|------------------10--7----------|----------9--5--4--5--7--------||
E|-0-0-0-0-0-0-0-0---------0-0-0-0-|-0-0-0-0--------2--3--5--------||

E|--------------------------|--------------------------||
B|--------------------------|--------------------------||
G|--------------------------|--------------------------||
D|--------------------------|--------------------------||
A|-4--5--7---8--7---5--7--3-|-2------------------------||
E|-2--3--5---6--5---3--5--1-|-0------------------------||
Composição de James Hetfield / Lars Ulrich
Colaboração e revisão:
  • Pentelho Lapa
  • Bruno Donatelli
2.251 exibições
    • ½ Tom
    • A
    • Bb
    • B
    • C
    • Db
    • D
    • Eb
    • E
    • F
    • F#
    • G
    • Ab
  • Adicionar à lista

    0 comentários

    Ver todos os comentários

    Conseguiu tocar?

    1 Tocaram 0 Ainda não

    Grave um vídeo tocando Spit Out The Bone e nos envie!

    00:00 / 00:00
    outros vídeos desta música
    repetir qualidade Automático
    Outros vídeos desta música
    00:00 / 00:00
    Automático

    Cifra Club Pro

    Aproveite o Cifra Club com benefícios exclusivos e sem anúncios
    Cifra Club Pro
    Aproveite o Cifra Club com benefícios exclusivos e sem anúncios
    OK