Cifra Club

Aprenda

It's working

MGMT

Cifra: Principal (violão e guitarra)
Já pensou em usar uma coleção de roupas do Cifra Club? Responda as perguntas abaixo e nos ajude nessa missão! →
tom: A
Intro:
E|---------------------------------------------------------------------------|
B|-------------------------3-------------------------------------------------|
G|---------------------0---2-------------------------------------------------|
D|-----------0--2--3-------0-------------------------------------------------|
A|--0--2--3------------------------------------------------------------------|
E|---------------------------------------------------------------------------|

F#m        G
Here, you focus
D     C#m  Bm       G
 so I can  see your faces
    F#m       B
the eyes are wrong

Riff 2:
E|---------------------------------------------------------------------------|
B|---------------------------------------------------------------------------|
G|---2---0-------------------------------------------------------------------|
D|------------4--4----2---4---4----------------------------------------------|
A|--------------------------------2------------------------------------------|
E|---------------------------------------------------------------------------|
"How will I  know if it's working..."
A
right?
F#m       G
light confuses
D      C#m  Bm       G
 the tiny   isles of bruises
    F#m     B
the mangled lines

(Riff 2)
I see the signs of aging

D                D
But if I try to feel at all
  Em               Em
I am deceived my mind's affected
D
it's empty now
D
as I lay down
Em
I feel alright
Em
my heart is racing

F#m      G
Turn the noise on
D         C#m   Bm      G
 I'd like to   feed my poison
  F#m     B
assembly lines
(Riff 2)
carry a velvet warning
F#m    G
to the yard
D          C#m   Bm       G
 it's just like striking matches
    F#m     B
the polish lies

But it's working in your blood
 B  A#m   G#m        E
(Working  in   your blood)

Which you know is not the same as love
 Em          F#m
(Same   as   love)
G                    (D)
Love is only in your mind
 D  C#m   Bm         G
(Working  in  your  mind)
              A
And not your heart

F#m        G
Now, it's working

Ponte: 
Em5   Em    D    G    F#m    A
But it's working in your blood
 B  A#m   G#m        E
(Working  in   your blood)

Which you know is not the same as love
 Em          F#m
(Same   as   love)
G                    (D)
Love is only in your mind
 D  C#m   Bm         G
(Working  in  your  mind)
              A
And not your heart
Composição de Andrew VanWyngarden / Ben Goldwasser
Colaboração e revisão:
  • Rennan Arakaki
1.457 exibições
    • ½ Tom
    • A
    • Bb
    • B
    • C
    • Db
    • D
    • Eb
    • E
    • F
    • F#
    • G
    • Ab
  • Adicionar à lista

    0 comentários

    Ver todos os comentários

    Conseguiu tocar?

    1 Tocaram 0 Ainda não

    Grave um vídeo tocando It's working e nos envie!

    00:00 / 00:00
    Outros vídeos desta música
    Repetir Qualidade Automático
    Outros vídeos desta música
    00:00 / 00:00
    Automático

    Cifra Club Pro

    Aproveite o Cifra Club com benefícios exclusivos e sem anúncios
    Cifra Club Pro
    Aproveite o Cifra Club com benefícios exclusivos e sem anúncios
    OK