Cifra Club

Kids

MGMT

Cifra: Principal
exibições 93.067
Tom: G
E|------------------------------------------------------------------------|
B|----------------5--7--9--7--5-------------------------------------------|
G|-----2--4--6------------------6--4--------------------------------------| 5x
D|------------------------------------------------------------------------|
A|------------------------------------------------------------------------|
E|------------------------------------------------------------------------|

E|------------------------------------------------------------------------|
B|-----------2------------------------------------------------------------|
G|-----2--4------4--2--4--2-----2-----------------------------------------|
D|---------------------------4--------------------------------------------|
A|------------------------------------------------------------------------|
E|------------------------------------------------------------------------|

OBS: fica melhor em power chord

F#m         D
You were a child
                 A              A7M/G#
Crawling on your knees toward it
F#m             D     A
Making momma so proud
                      A7M/G#  F#m D
But your voice is too loud
                 A           A7M/G# F#m
We like to watch you laughing
                    D
Picking insects off plants
A                        A7M/G#
No time to think of consequences

Chorus

E|-----------------------------------------------------------------------|
B|--------------6--8--10--8--6-------------------------------------------|
G|-----3--5--7------------------7--5-------------------------------------| 3x
D|-----------------------------------------------------------------------|
A|-----------------------------------------------------------------------|
E|-----------------------------------------------------------------------|

E|-----------------------------------------------------------------------|
B|-----------3--1-----1--------3-----------------------------------------|
G|-----3--5--------3-----3--0--------------------------------------------|
D|-----------------------------------------------------------------------|
A|-----------------------------------------------------------------------|
E|-----------------------------------------------------------------------|

( F#m D A A7M/G# )
Control yourself

Take only what you need from it

A family of trees wanted to be haunted

Control yourself

Take only what you need from it

A family of trees wanted to be haunted


( F#m D A A7M/G# )
The water is warm

But it's sending me shivers

A baby is born

Crying out for attention

Memories fade

Like looking through a fogged mirror

Decisions to decisions are made and not bought

But I thought this wouldn't hurt a lot

I guess not

Chorus 6x)

(riffs usados na introdução e na musica)
E|-----------------------------------------------------------------------|
B|--------------6--8--10--8--6-------------------------------------------|
G|-----3--5--7------------------7--5-------------------------------------|
D|-----------------------------------------------------------------------|
A|-----------------------------------------------------------------------|
E|-----------------------------------------------------------------------|

E|-----------------------------------------------------------------------|
B|--------------6--8--10--8--6-------------------------------------------|
G|-----3--5--7------------------7--5-------------------------------------|
D|-----------------------------------------------------------------------|
A|-----------------------------------------------------------------------|
E|-----------------------------------------------------------------------|

E|-----------------------------------------------------------------------|
B|-----------3--1-----1--------3-----------------------------------------|
G|-----3--5--------3-----3--0--------------------------------------------|
D|-----------------------------------------------------------------------|
A|-----------------------------------------------------------------------|
E|-----------------------------------------------------------------------|

0 comentários

    mostrar mais comentários

    Conseguiu tocar?

    20tocaram0ainda não

    Grave um vídeo tocando Kids e mande pra gente!

    00:00 / 00:00
    outros vídeos desta música
    repetirqualidadeautomática
    Outro vídeos desta música
      00:00 / 00:00
      automática
      OK