Cifra Club

Kids

MGMT

Cifra: Versão 4 (violão e guitarra)
tom: C
(intro)

E|-----------------------------2-----4----2------------------------------|
B|----------------2-----5--------------------5----------2----------------|
G|-----2----4----------------------------------------------------4-------|
D|-----------------------------------------------------------------------|
A|-----------------------------------------------------------------------|
E|-----------------------------------------------------------------------|

E|--------------------------------------------------------------------|
B|----------------2---------------------------------------------------|
G|-----2----4-----------4---2--4--2-------2~---1----------------------|
D|------------------------------------4-------------------------------|
A|--------------------------------------------------------------------|
E|--------------------------------------------------------------------|

Am        F
You were a child
                C                 G
Crawling on your knees toward it
 Am             F
Making momma so proud
C                     G
But your voice is too loud
Am
F                 C          G
We like to watch you laughing
Am                 F
Picking insects off plants
C                       G
No time to think of consequences

Am
Control yourself
F                  C         G
Take only what you need from it
Am           F         C      G
A family of trees wanted to be haunted

Am
Control yourself
F                  C         G
Take only what you need from it
Am            F         C      G
A family of trees wanted to be haunted

Am             F
The water is warm
            C           G
But it's sending me shivers
 Am         F
A baby is born
  C                G
Crying out for attention
Am          F
Memories fade
                      C        G
Like looking through a fogged mirror
Am                   F
Decisions to decisions are made and not bought
             C                  G
But I thought this wouldn't hurt a lot
I guess not

Am
Control yourself
F                  C         G
Take only what you need from it
Am            F         C      G
A family of trees wanted to be haunted
00:00 / 00:00
Outros vídeos desta música
Repetir
Outros vídeos desta música
Composição de Andrew VanWyngarden / Ben Goldwasser
Colaboração e revisão:
  • Bruno Stein
  • Bárbara Silveira
7.485 exibições
    • ½ Tom
    • A
    • Bb
    • B
    • C
    • Db
    • D
    • Eb
    • E
    • F
    • F#
    • G
    • Ab
  • Adicionar à lista

    0 comentários

    Ver todos os comentários

    Entre para oCifra Club PRO

    Tenha acesso a benefícios exclusivos no App e no Site

    • Chega de anúncios

    • Prioridade de compra em lançamentos

    • Mais recursos no app do Afinador

    • Atendimento Prioritário

    • Descontos nos produtos Cifra Club

    • Ajude a produzir mais conteúdo

    00:00 / 00:00

    Cifra Club Pro

    Aproveite o Cifra Club com benefícios exclusivos e sem anúncios
    Cifra Club Pro
    Aproveite o Cifra Club com benefícios exclusivos e sem anúncios
    OK