Cifra Club

Try (feat. Rappin’Hood)

MIC

Cifra: Principal (violão e guitarra)
Tom: A
E|------------------------------------------|
B|------0-----------------------------------|
G|-----------------------------1------------|
D|---2--------------------------------------|
A|-4------------------------2---------------|
E|-----------------3------4-----------------|

E|------------------------------------------|
B|--------0---------------------------------|
G|------------------------------1-----------|
D|-----2------------------------------------|
A|-3-4-----------------------2--------------|
E|-----------------3-------4----------------|

Wakare no kawarini kuchibiru o nurashite
E|------------------------------------------|
B|------0-----------------------------------|
G|-----------------------------1------------|
D|---2--------------------------------------|
A|-4------------------------2---------------|
E|-----------------3------4-----------------|

Omoi `ai' nante mono wa Hitsuyō janai no
E|------------------------------------------|
B|--------0---------------------------------|
G|------------------------------1-----------|
D|-----2------------------------------------|
A|-3-4-----------------------2--------------|
E|-----------------3-------4----------------|

Se o hau yōna shigeki ga ī
E|------------------------------------------|
B|------0-----------------------------------|
G|-----------------------------1------------|
D|---2--------------------------------------|
A|-4------------------------2---------------|
E|-----------------3------4-----------------|

Yojireru kurai tanoshima sete
E|------------------------------------------|
B|--------0---------------------------------|
G|------------------------------1-----------|
D|-----2------------------------------------|
A|-3-4-----------------------2--------------|
E|-----------------3-------4----------------|

     C#m  D#7  G#m
Marude sō   Heroin
  G#m     C#m   D#7  G#m
Chūdoku shōjō every day
G#m     C#m  D#7  G#m
 Baby Try   Tsuyoku
   C#m  D#7   G#m
Baby Try Furete
   C#m   D#7  G#m
Marude sō  Heroin
  G#m     C#m  D#7    G#m
Chūdoku shōjō  every day
G#m     C#m  D#7  G#m
 Baby Try   Tsuyoku
   C#m  D#7   G#m
Baby Try Furete
     Em7       Bm7  D#7  G#m
Atsuku nureta hoho ga  itai
D#7
Okufukaku nomerikomitai

Rappin'Hood na área
C#m                     D#7        G#m
  Quem não tenta nunca vai alcançar

Os que não correm jamais irão chegar
C#m                     D#7                  G#m
  Se não andar rasteje como disse Luther King

Não jogue a toalha, não fuja do ringue
C#m               D#7                 G#m
  Quem luta certamente um dia irá vencer

Confie em Deus, acredite em você
 C#m                  D#7                 G#m
Pois a vitória só sorri para quem acredita

Não somos nada eu disse nada sem as tentativas

C#m       D#7  G#m
  Marude sō Heroin
  G#m     C#m  D#7      G#m
Chūdoku shō---jō every day

G#m     C#m  D#7  G#m
 Baby Try   Tsuyoku
   C#m  D#7   G#m
Baby Try Furete
C#m       D#7  G#m
  Marude sō Heroin
  G#m     C#m  D#7      G#m
Chūdoku shō---jō every day

G#m     C#m  D#7  G#m
 Baby Try   Tsuyoku
   C#m  D#7   G#m
Baby Try Furete


exibições 423
Acordes para:
    Colaboração e revisão:
    • Lucas Kappaun

    0 comentários

    mostrar mais comentários

    Conseguiu tocar?

    0 tocaram 0 ainda não

    Grave um vídeo tocando Try (feat. Rappin’Hood) e mande pra gente!

    00:00 / 00:00
    outros vídeos desta música
    repetir qualidade Automático
    Outros vídeos desta música
    00:00 / 00:00
    Automático
    OK